Dm               F               G    C(3)    
Плавают разными стилями, тонут одним.
 Dm                 F            G      C(3)
Минус один, чьи-то розы на подоконнике.
 Dm                 F                  G    C(3)
Тетка с косой на пороге , наверно, за ним,
      Dm            F                  G       C(3)
Некредитоспособные люди отдают долг покойнику.

Riff: 
E------------------------------------------------|| 2
B------------------------------------------------|| t
G------------------------------------------------|| i 
D||--6-6-6-6-6-6-6-6-5----6-6-6-6-6-6-6-6--4-2-3-4---2-4-3---2-4-3-2-3---|| m
A||--6-6-6-6-6-6-6-6-5----6-6-6-6-6-6-6-6--4-2-3-4---2-4-3---2-4-3-2-3---|| e
E||--4-4-4-4-4-4-4-4-3----4-4-4-4-4-4-4-4--2-0-1-2---0-1-2---0-1-2-0-1---|| s


Солнце, зима на исходе, воздух бодрит.             |         
Кладбище - тихое, доброе место, вохможно.          |   Bass    
Снег уже пахнет, ящик открыт,                      |    
Женщины плачут, будь осторожен.                    |  

        Припев:   
        
        Смерть - это то, что бывает с другими,     |
	Смерть - это то, что бывает с другими,     |  
        Смерть - это то, что бывает с другими,     |   RIFF X 2 times
	Смерть - это то, что бывает с другими,     |

Даже шуты иногда умирают всерьез,                  | 
Я молчу на похоронах, как актер на прогоне.        |  
Репетируем... скоро всем нам пиздос.               |    Bass 
Старые, жирные свиньи в сером загоне.              |   
	
	Припев: 

E----------||
B----------||
G----------||
D||---4-2-3-4--2-3-4--2-3-4--2-3---||  X 4 times
A||---4-2-3-4--2-3-4--2-3-4--2-3---||
E||---2-0-1-2--0-1-2--0-1-2--0-1---||



 D5                F5             G5    C5
Кончено все, мы зарыли в землю талант,
 D5             F5                G5     C5 
Веники скоро завянут, плакать не надо.
 D5            F5          G5       C5  
Мама нагнулась, поправила бант.
  D5     F5              G5     C5
Жди, и тебя поджидает засада.

	Припев:


Текст, аккорды и табулатура для песни "С другими", исполняет "Кирпичи".
Используемые в песне аккорды можно найти в разделе Как брать аккорды. Аккорды для шестиструнной гитары. Другие песни можно найти на нашем сайте, воспользовавшись алфавитным указателем вверху страницы.


 
Ошибка в тексте? Выделите ошибку и нажмите Ctrl+Enter