Riff котторый играется в припеве и куплете.Вот так.
|-----------------------------------------
|-------------------------------------------
|--7------4--------------------------------
|--7------4-------------5------7----------------------
|--5------2-------------5------7------------------------
|-----------------------3------5------------------------

Riff 2.
|---------------------------
|---------------------------
|--6----7----9----6----7----
|--6----7----9----6----7----
|--4----5----7----4----5----
|---------------------------
Riff1
Мы вам тут играем, мы вам тут поем
А кто то очень юный сидит за компом

Riff2
С нами все понятно - мы с этим будем в топах
Ну а  тебе придется под это  двигать попой

Припев:
Riff1
Их задача сделать из тебя дегенерата
Мы не виноваты - мы - нормальные ребята

Riff1
Вы хотели правды?Ложь одна кругоом! 
А кто-то очень хитрый сидиит за компоом.

Riff 2
Над вами издеваются - а вы ни сном ни духом.
А кто-то это слушает профессиональным ухом. (ЧМО!)

Riff1
Их задача сделать из тебя дегенерата
Мы не виноваты - мы - нормальные ребята

Riff1
Их задача сделать из тебя дегенерата
Мы не виноваты - мы - нормальные ребята

И так дальше до посинения...............



Текст, аккорды и табулатура для песни "Нормальные ребята", исполняет "Кирпичи".
Используемые в песне аккорды можно найти в разделе Как брать аккорды. Аккорды для шестиструнной гитары. Другие песни можно найти на нашем сайте, воспользовавшись алфавитным указателем вверху страницы.


 
Ошибка в тексте? Выделите ошибку и нажмите Ctrl+Enter