Riff 1
intro&verse(grunge) / x - мертвая нота
    C#5           E5           B
H--------------------------------------
B--------------------------------------
F|--6----6----6---5----5----5---3--3--3----3--3--3-
A|--6--х-6--х-6-х-5--х-5--х-5-х-3--3--3----3--3--3- ( x 4 )
D|--4--х-4--х-4-х-3--х-3--х-3-х-1--1--1----1--1--1-
H--------------------------------------

Riff 2
                                B
H---------------------------------------------
B---------------------------------------------
F|------4-----4------4------4------3------3------3------3-
A|------4-----4------4------4------3------3------3------3-
D|--2-2----2-2----2-2----2-2----1-1----1-1----1-1----1-1--
H---------------------------------------------
    (тоже что и с верху)        B
                             -----------------------------
                             -----------------------------
                             ---3--3--3--3-3-3-3----------
                             ---3--3--3--3-3-3-3----------
                             ---1--1--1--1-1-1-1----------
                             -----------------------------
intro:
Riff 1

verse:
Riff 1
   C#5              E5            B
Хочу заниматься любовью подруга с тобой через сеть интернет
Чтоб Мы наплодили таких же, как мы, - современных 
Riff 2 
                  
Насилие - это смешная вещица 
   B
Оставьте в покое меня! 
                      B
Не оставляйте меня одного!! 

Ищу в секонд хэнде красивые шмотки, чтобы стильно одеться на рейв 
А раньше я думал шедевры писать акварелью 
Мое поколение не любит любовь 

Оставьте в покое меня! 
Не оставляйте меня одного!! 

|Solo выключайте педаль и играйте импровиз на квинтах из intro|

Ночная гитара я гладил струну завывая вчера 
Теперь я смотрю наркоманские фильмы смешные 
Мне нравится это и значит это так надо 

Оставьте в покое меня! 
Не оставляйте меня одного!!


Текст, аккорды и табулатура для песни "Интернет", исполняет "Кирпичи".
Используемые в песне аккорды можно найти в разделе Как брать аккорды. Аккорды для шестиструнной гитары. Другие песни можно найти на нашем сайте, воспользовавшись алфавитным указателем вверху страницы.


 
Ошибка в тексте? Выделите ошибку и нажмите Ctrl+Enter