Вступление (4 раза):
    E5   D5       C#5             G5           A5 
E|---------------------------------------------------------|
H|---------------------------------------------------------|
G|--9-9--7-7-7-7--6-6-6-6-6-6------------------------------|
D|--9-9--7-7-7-7--4-4-4-4-4-4-----5-5-5-5-5-5--7-7-7-7-7-7-|
A|--7-7--5-5-5-5--4-4-4-4-4-4-----5-5-3-5-5-5--7-7-7-7-7-7-|
E|--------------------------------3-3-3-3-3-3--5-5-5-5-5-5-| 

Бас во время куплета (один повтор на две строчки):
D|----3--1----------|
A|---------5-----5--|
E|--5--------5------|

Во время куплета можно периодически в начале строчек играть соответственно E5 и D5.

Ты так прекрасна: тело, глаза,
Все на местах.
Нежное, сочное, вкусное, мягкое
Мясо в зубах.
Ты-самая лучшая вещь на планете,
Ты-идеал.
Долго я ждал такую, как ты,
Я выл и стонал.

        G5  
Я Так себя завел, считая серые дни,
        F5
Я все равно смотрю в лес, как меня ни корми,
    G5
Я тебя сожру, и это- мой долг.
    F5                   G5     A5            
Волк - на то он и волк!!

  E5    D5  C#5
Глотай!!
   G5             A5
Цепь тяжела и наручники жмут!!
Глотай!!
Я не понимаю, что я делаю тут.
Глотай!!
Быстро глотай, а то тебя сожрут!
Глотай!
Глотай, глотай, так меня зовут!

Собаки поджали хвосты, сказали, что
Я им брат.
Ты смотришь в глаза, ты хочешь забрать
Мою душу.
Я никогда не делаю так, как 
Мне говорят.
Я так спокоен, когда мне
Не хочется кушать.

Я слышал голоса,но они мне врут!
Я не понимаю, что я делаю тут!
Я все равно смотрю в лес, как меня ни корми,
Это в крови!!

Припев

Далее идет проигрыш(x4):
E|---------------------------|
H|---------------------------|
G|---------------------------|
D|--9---7---6-----3---5--7---|
A|--7---5---4-----3---5--7---|
E|--7---5---4-----1---3--5---|

Далее F5 некоторое время

Припев


Текст, аккорды и табулатура для песни "Глотай", исполняет "Кирпичи".
Используемые в песне аккорды можно найти в разделе Как брать аккорды. Аккорды для шестиструнной гитары. Другие песни можно найти на нашем сайте, воспользовавшись алфавитным указателем вверху страницы.


 
Ошибка в тексте? Выделите ошибку и нажмите Ctrl+Enter