ПРИПЕВ.
E--------------5-7-8-7-5--------------- -5-5-5----7-7-7------------5|
H------------- 5-7-8-7-5--------------- -5-5-5----7-7-7--------------|
G------------- 5-7-8-7-5--------------- -5-5-5----7-7-7--------------|
D---7--7---------------------------7--7---------------------------------|
A---7--7---------------------------7--7---------------------------------|
E---5--5--------------------------  5--5---------------------------------|
КУПЛЕТ
E---5-5-5-----5-5-5-5-5-------7----------------------------------------|
H---5-5-5-----5-5-5-5-5-------------------------------------------------|
G---5-5-5-----5-5-5-5-5-------------------------------------------------|
D---7-7-7-----7-7-7-7-7--------------------------------------------------|
A---7-7-7-----7-7-7-7-7--------------------------------------------------|
E---5-5-5------5-5-5-5-5--------------------------------------------------|

СЕГОДНА Я ГУЛЯЮ - МЕНЯ ВЫГНАЛИ С РАБОТЫ
ДЕНЕГ НЕ ДАЛИ, ВЫПИТЬ ОХОТА
КИНУЛИ, КИНУЛИ, МЕНЯ НА ДЕНЬГИ КИНУЛИ
РАЗВЕЛИ НА ДЕНЬГИ И ПО МОРДЕ ДВИНУЛИ
НАЛИВАЙ, СЕГОДНЯ НЕЧЕГО ТЕРЯТЬ
ЗАВТРА ВПРИЧЕМ НЕЧЕГО ТЕРЯТЬ ОПЯТЬ
У МЕНЯ НЕТ НИ ЦЕНТА, ТЫ ЗОЛОТОЙ ЛАВАЖ
Я ТЕБЕ СПЛЯШУ, ТЫ МНЕ ВОДКИ ДАШЬ
ДРАКА, ДРАКА, СКОРО БУДЕТ ДРАКА
КАЙФ УЙДЕТ ЕСЛИ НАПЬЕШСЯ КАК СОБАКА
Я МАСТЕР КАН-ФУ НЕ ПОДХОДИ КО МНЕ
БОЛЬШОЙ ПИСТОЛЕТ У МЕНЯ НА РЕМНЕ


ПРИПЕВ:
БАЙКА, БАЙКА 
РАССКАЖИ РЕАЛЬНУЮ БАЙКУ БРАТВЕ

НУЖНО ОБЯЗАТЕЛБНО УСТРОИТЬ ВЕЧЕРИНКУ-
ДАВНО НЕ ОЩУЩАЛ МЕНТОВСКУЮ ДУБИНКУ
БЫСТРОЙ ПОХОДКОЙ ПОДХОЖУ К ЛАРЬКУ,
НАСТУПАЮ НА НОГУ ОГРОМНОМУ БЫКУ
СТРЕЛКА ЗАБИТА, СХЕМА ОТРАБОТАНА
ВОТ ОНА, ВОТ ОНА - НА ШПИНДЕЛЯ НАМОТАНА
ПОЛПЕРВОГО - БЕГОМ, НА МЕТРО НЕ ОПОЗДАТЬ
ИНАЧЕ ТОП,ТОП,ТОП ВСЮ НОЧЬ ГУЛЯТЬ
ЧЕЛОВЕК - ПРОСТО ПОПИСАЛ В КУСТАХ
ОЧУТИЛСЯ В МЕНТУРЕ ТРИ НОЧИ НА ЧАСАХ
ВЕЩИ, ЗАДУМАННЫЕ ЧИСТО И ДУШЕВНО
ЧАСТЕНЬКО КОНЧАЮТСЯ ПРОСТО ПЛАЧЕВНО
 ПРИПЕВ
 



	
	
	        
Комментарий автора: ЛУЧШЕ ИГРАТЬ НА ДВЕХ ГИТАРАХ. ОДНА КВИНТАМИ, ДРУГАЯ АККОРДАМИ

Текст, аккорды и табулатура для песни "Байка", исполняет "Кирпичи".
Используемые в песне аккорды можно найти в разделе Как брать аккорды. Аккорды для шестиструнной гитары. Другие песни можно найти на нашем сайте, воспользовавшись алфавитным указателем вверху страницы.


 
Ошибка в тексте? Выделите ошибку и нажмите Ctrl+Enter