riff1:

      G#m        H5     G#m       F#m   
G---------------4-4----------------------------
D-6-6-6-6-6-6-6-4-4-6-6-6-6-6-6-6-4-4----------
A-6-6-6-6-6-6-6-2-2-6-6-6-6-6-6-6-4-4----------
E-4-4-4-4-4-4-4-----4-4-4-4-4-4-4-2-2----------


riff2:

    G#m     H5   G#m    F#m
G----------4-4--------------------
D-6-6-6-6--4-4-6-6-6-6--4-4-------
A-6-6-6-6--2-2-6-6-6-6--4-4-------
E-4-4-4-4------4-4-4-4--2-2-------


riff3:

    G#m       H5      G#m      H5     G#m  
G----------8--8-8-8----------8--8-8-8--------
D-6--6-6-6-8--8-8-8-6--6-6-6-8--8-8-8-6------  и т.д.
A-6--6-6-6-6--6-6-6-6--6-6-6-6--6-6-6-6------
E-4--4-4-4----------4--4-4-4----------4------


начало песни:

riff1-4 раза

куплет под riff2:

Банкет в полном разгаре
Она лицом об столб
Тебя так прет и так бодрит
Тебе хорошо
Ты принял бы еще
Но напиваться ты завязал


Текст, аккорды и табулатура для песни "Я феминист", исполняет "Кирпичи".
Используемые в песне аккорды можно найти в разделе Как брать аккорды. Аккорды для шестиструнной гитары. Другие песни можно найти на нашем сайте, воспользовавшись алфавитным указателем вверху страницы.


 
Ошибка в тексте? Выделите ошибку и нажмите Ctrl+Enter