Соло играется на первых трех струнах:

E-----------|
H|-8-7-0-3-5--5-3-7-5-0-|
G-----------|

E-----------|
H|-8-7-0-3----5-3-5-0---|
G|---------5------------|

E-----------|
H|-8-7-0-3-5--5-3-7-5-0-|
G-----------|

E-------7---|
H|-8-7-0-3----5-3-5-----|
G|---------5------------|

Подбор: Митрич.


Текст, аккорды и табулатура для песни "Нам с тобой (вступление)", исполняет "Киреев Анатолий".
Используемые в песне аккорды можно найти в разделе Как брать аккорды. Аккорды для шестиструнной гитары. Другие песни можно найти на нашем сайте, воспользовавшись алфавитным указателем вверху страницы.


 
Ошибка в тексте? Выделите ошибку и нажмите Ctrl+Enter