1-й КУПЛЕТ:

ВокалЕ-----------------------|
     H-----------------------|
     G-----------------------|
     D---------------8----6--|
     A-----------------------|
     E------------- На - до  |
    
Гит. E|--3-------3-------3-------3-------|
     H|--4-------4-------4-------4-------|
     G|--5-------5-------5-------5-------|
     D-----------------------|
     A-----------------------|
     E-----------------------|
 
ВокалЕ---------------------------------------------------------|
     H-------------------8-8---9-----8-6--9----8------8------8-|
     G|----------5-----7-8-------------------------------------------------|
     D|----5-5-------------------------------------------------------------|
     A---------------------------------------------------------|
     E|-  мною  ти -  шина,         небо  пол -  ное дождя,      Дождь  про|
     
Гит. E|--3-------3-------3-------3-------|-4-------4-------3-------3-------|
     H|--4-------4-------4-------4-------|-6-------6-------4-------4-------|
     G|--5-------5-------5-------5-------|-5-------5-------5-------5-------|
     D---------------------------------------------|
     A---------------------------------------------|
     E---------------------------------------------|
 
ВокалЕ---------------------------------------------------------|
     H|--9-8-----6----9--8------8--6-------6-------------------------------|
     G----------------------8-------8--7-----------------------|
     D-------------------------------------------------8---6---|
     A---------------------------------------------------------|
     E| ходит сквозь  меня,    но бо - ли  больше нет,            Под хо - |
     
Гит. E|--4-------4-------3-------3-------|-1-------1-------1-------1-------|
     H|--6-------6-------4-------4-------|-3-------3-------3-------3-------|
     G|--5-------5-------5-------5-------|-3-------3-------3-------3-------|
     D---------------------------------------------|
     A---------------------------------------------|
     E---------------------------------------------|
 
ВокалЕ---------------------------------------------------------|
     H-----------------8--8----9--8--6--9---8---------8----8---|
     G5-7-----8------------------------------------------------|
     D|--5--5--------------------------------------------------------------|
     A---------------------------------------------------------|
     E| лодный   шепот  звезд     мы  сожгли последний мост,      и  все в |
      |                                  |                                 |
Гит. E|--3-------3-------3-------3-------|-4-------4-------3-------3-------|
     H|--4-------4-------4-------4-------|-6-------6-------4-------4-------|
     G|--5-------5-------5-------5-------|-5-------5-------5-------5-------|
     D---------------------------------------------|
     A---------------------------------------------|
     E---------------------------------------------|
 
ВокалЕ---------------------------------------------------------|
     H|--9---8---6--9-8----------8--6------6-------------------6-----------|
     G---------------------8------8--7------------------8---7--|
     D---------------------------------------------------------|
     A---------------------------------------------------------|
     E| бездну  сорвалось   -   свободным стану  я             от зла   и  |
    
Гин. E|--4-------4-------3-------3-------|-1-------1-------1-------1-------|
     H|--6-------6-------4-------4-------|-3-------3-------3-------3-------|
     G|--5-------5-------5-------5-------|-3-------3-------3-------3-------|
     D---------------------------------------------|
     A---------------------------------------------|
     E---------------------------------------------|
 
ВокалЕ---------------------------------------------------------|
     H---------------------------------------------------------|
     G|-8---7--5------------5----7---5-----4--------4---5--7------8----7---|
     D--------------------------------5-------------5----------|
     A---------------------------------------------------------|
     E| от добра,          Мо -  я  ду -  ша     была  на лез - вии   но - |
     
Гит. E---------------------------------------------|
     H-----------------------|-3-------3-------3-------3-------|
     G|--5-------5-------5-------5-------|-4-------4-------4-------4-------|
     D|--6-------6-------6-------6-------|-5-------5-------5-------5-------|
     A|--6-------6-------6-------6-------|-5-------5-------5-------5-------|
     E---------------------------------------------|

ВокалЕ---------------------------------------------------------|
     H---------------------------------------------------------|
     G|--5-----------------------------------------------------------------|
     D---------------------------------------------------------|
     A---------------------------------------------------------|
     E|--жа...-------------------------------------------------------------|
     
Гит. E|--3-------3-------3-------3-------|-6-------6-------6-------6-------|
     H|--4-------4-------4-------4-------|-8-------8-------6-------6-------|
     G|--5---|-|-5---|-|-5---|-|-5---|-|-|-8---|-|-8---|-|-7---|-|-7---|-|-|
     D|--5---|-|-5---|-|-5---|-|-5---|-|-|-8---|-|-8---|-|-8---|-|-8---|-|-|
     A|--3---|-|-3---|-|-3---|-|-3---|-|-|-6---|-|-6---|-|-8---|-|-8---|-|-|
     E|--3-------3-------3-------3-------|-6-------6-------6-------6-------|
 
                                                                     Я  бы
Гит. E|--3-------3-------3-------3-------|-6-------6-------6---------------|
     H|--4-------4-------4-------4-------|-8-------8-------6---------------|
     G|--5---|-|-5---|-|-5---|-|-5---|-|-|-8---|-|-8---|-|-7---------------|
     D|--5---|-|-5---|-|-5---|-|-5---|-|-|-8---|-|-8---|-|-8---------------|
     A|--3---|-|-3---|-|-3---|-|-3---|-|-|-6---|-|-6---|-|-8---------------|
     E|--3-------3-------3-------3-------|-6-------6-------6---------------|
2-й КУПЛЕТ:

ВокалЕ---------------------------------------------------------|
     H-------------------8--8--9-----8----6--9--8--------8---8-|
     G|----------5----7--8-------------------------------------------------|
     D|--5-----5-----------------------------------------------------------|
     A---------------------------------------------------------|
     E| мог с тобо -  ю быть,        я бы мог  про  все забыть,      я  бы |
                                                                        
Гит. E|--3-------3-------3-------3-------|-4-------4-------3-------3-------|
     H|--4-------4-------4-------4-------|-6-------6-------4-------4-------|
     G|--5---|-|-5---|-|-5---|-|-5---|-|-|-5---|-|-5---|-|-5---|-|-5---|-|-|
     D|--5---|-|-5---|-|-5---|-|-5---|-|-|-4---|-|-4---|-|-5---|-|-5---|-|-|
     A|--3---|-|-3---|-|-3---|-|-3---|-|-|-4---|-|-4---|-|-3---|-|-3---|-|-|
     E|--3-------3-------3-------3-------|-4-------4-------3-------3-------|
 
ВокалЕ---------------------------------------------------------|
     H|--9----8--6-----9-8-------8-6-------6-------------------------------|
     G----------------------8-------8--7-----------------------|
     D----------------------------------------------------8-6--|
     A---------------------------------------------------------|
     E| иог  тебя     любить,   но э - то  лишь игра.             В  шуме  |
                                  
Гит. E|--4-------4-------3-------3-------|-1-------1-------1-------1-------|
     H|--6-------6-------4-------4-------|-3-------3-------3-------3-------|
     G|--5---|-|-5---|-|-5---|-|-5---|-|-|-3---|-|-3---|-|-3---|-|-3---|-|-|
     D|--4---|-|-4---|-|-5---|-|-5---|-|-|-3---|-|-3---|-|-3---|-|-3---|-|-|
     A|--4---|-|-4---|-|-3---|-|-3---|-|-|-1---|-|-1---|-|-1---|-|-1---|-|-|
     E|--4-------4-------3-------3-------|-1-------1-------1-------1-------|
 
ВокалЕ-----------------------------------------8---------------|
     H-------------------8---8-9-8----6-----------------8--8---|
     G|----------5-----7-8--------------------------8----------------------|
     D|--5--5--------------------------------------------------------------|
     A---------------------------------------------------------|
     E| ветра   за   спиной          я  забуду   голос   твой,      и  от  |
                                    
Гит. E|--3-------3-------3-------3-------|-4-------4-------3-------3-------|
     H|--4-------4-------4-------4-------|-6-------6-------4-------4-------|
     G|--5---|-|-5---|-|-5---|-|-5---|-|-|-5---|-|-5---|-|-5---|-|-5---|-|-|
     D|--5---|-|-5---|-|-5---|-|-5---|-|-|-4---|-|-4---|-|-5---|-|-5---|-|-|
     A|--3---|-|-3---|-|-3---|-|-3---|-|-|-4---|-|-4---|-|-3---|-|-3---|-|-|
     E|--3-------3-------3-------3-------|-4-------4-------3-------3-------|
 
ВокалЕ---------------------------------------------------------|
     H|--9----8--6---9--8-------8--6-------6-------------------------------|
     G-----------------------8---8-----7---------------8----7--|
     D---------------------------------------------------------|
     A---------------------------------------------------------|
     E| той  любви  земной,   что нас сжигала в  прах,           и я  схо- |
      
Гит. E|--4-------4-------3-------3-------|-1-------1-------1-------1-------|
     H|--6-------6-------4-------4-------|-3-------3-------3-------3-------|
     G|--5---|-|-5---|-|-5---|-|-5---|-|-|-3---|-|-3---|-|-3---|-|-3---|-|-|
     D|--4---|-|-4---|-|-5---|-|-5---|-|-|-3---|-|-3---|-|-3---|-|-3---|-|-|
     A|--4---|-|-4---|-|-3---|-|-3---|-|-|-1---|-|-1---|-|-1---|-|-1---|-|-|
     E|--4-------4-------3-------3-------|-1-------1-------1-------1-------|
 
ВокалЕ---------------------------------------------------------|
     H---------------------------------------------------------|
     G|--8-----7-5----------5----7---5-----4--------4----5--7---------8--7-|
     D------------------------------5--------------5-----------|
     A---------------------------------------------------------|
     E| дил  с ума.      В мо -  ей ду -  ше   нет  больше места    для те-|
      
Гит. E|--4-------4-------4-------4-------|-3-------3-------3-------3-------|
     H|--4-------4-------4-------4-------|-3-------3-------3-------3-------|
     G|--5---|-|-5---|-|-5---|-|-5---|-|-|-4---|-|-4---|-|-4---|-|-4---|-|-|
     D|--6---|-|-6---|-|-6---|-|-6---|-|-|-5---|-|-5---|-|-5---|-|-5---|-|-|
     A|--6---|-|-6---|-|-6---|-|-6---|-|-|-5---|-|-5---|-|-5---|-|-5---|-|-|
     E|--4-------4-------4-------4-------|-3-------3-------3-------3-------|

ПРИПЕВ: ( Cm, D#, A# )

ВокалЕ---------------------------------------------------------|
     H--------------8------------------------------------------|
     G|--5----------5----7-8-----------------------8--8----8-----7----5-3--|
     D---------------------------------------------------------|
     A---------------------------------------------------------|
     E|  бя.        Я  свобо - ден               словно  пти -  ца в небе- |
      
Гит. E|--3-------3-------3-------3-------|-6-------6-------6-------6-------|
     H|--4-------4-------4-------4-------|-8-------8-------6-------6-------|
     G|--5---|-|-5---|-|-5---|-|-5---|-|-|-8---|-|-8---|-|-7---|-|-7---|-|-|
     D|--5---|-|-5---|-|-5---|-|-5---|-|-|-8---|-|-8---|-|-8---|-|-8---|-|-|
     A|--3---|-|-3---|-|-3---|-|-3---|-|-|-6---|-|-6---|-|-8---|-|-8---|-|-|
     E|--3-------3-------3-------3-------|-6-------6-------6-------6-------|
 
        сах,        я свобо - ден,                 я  за - был,что значит 
Гит. E|--3-------3-------3-------3-------|-6-------6-------6-------6-------|
     H|--4-------4-------4-------4-------|-8-------8-------6-------6-------|
     G|--5---|-|-5---|-|-5---|-|-5---|-|-|-8---|-|-8---|-|-7---|-|-7---|-|-|
     D|--5---|-|-5---|-|-5---|-|-5---|-|-|-8---|-|-8---|-|-8---|-|-8---|-|-|
     A|--3---|-|-3---|-|-3---|-|-3---|-|-|-6---|-|-6---|-|-8---|-|-8---|-|-|
     E|--3-------3-------3-------3-------|-6-------6-------6-------6-------|
       страх.      Я свобо - ден,              с  ди - ким вет - ром  нарав-   
Гит. E|--3-------3-------3-------3-------|-6-------6-------6-------6-------|
     H|--4-------4-------4-------4-------|-8-------8-------6-------6-------|
     G|--5---|-|-5---|-|-5---|-|-5---|-|-|-8---|-|-8---|-|-7---|-|-7---|-|-|
     D|--5---|-|-5---|-|-5---|-|-5---|-|-|-8---|-|-8---|-|-8---|-|-8---|-|-|
     A|--3---|-|-3---|-|-3---|-|-3---|-|-|-6---|-|-6---|-|-8---|-|-8---|-|-|
     E|--3-------3-------3-------3-------|-6-------6-------6-------6-------|
        не.       Я свобо - ден                   на -   яву,      а  не  во
Гит. E|--3-------3-------3-------3-------|-6-------6-------6-------6-------|
     H|--4-------4-------4-------4-------|-8-------8-------6-------6-------|
     G|--5---|-|-5---|-|-5---|-|-5---|-|-|-8---|-|-8---|-|-7---|-|-7---|-|-|
     D|--5---|-|-5---|-|-5---|-|-5---|-|-|-8---|-|-8---|-|-8---|-|-8---|-|-|
     A|--3---|-|-3---|-|-3---|-|-3---|-|-|-6---|-|-6---|-|-8---|-|-8---|-|-|
     E|--3-------3-------3-------3-------|-6-------6-------6-------6-------|
 
       сне....
Гит.1E|--3-------3-------3-------3-------|-6-------6-------6-------6-------|
     H|--4-------4-------4-------4-------|-8-------8-------6-------6-------|
     G|--5---|-|-5---|-|-5---|-|-5---|-|-|-8---|-|-8---|-|-7---|-|-7---|-|-|
     D|--5---|-|-5---|-|-5---|-|-5---|-|-|-8---|-|-8---|-|-8---|-|-8---|-|-|
     A|--3---|-|-3---|-|-3---|-|-3---|-|-|-6---|-|-6---|-|-8---|-|-8---|-|-|
     E|--3-------3-------3-------3-------|-6-------6-------6-------6-------|
      |                                  |                                 |
Гит.2E---------------------------------------------|
     H-----------------------|-8---------------6---------------|
     G|--5-----------------------8-7-5---------------------8-7-|
     D---------------------8-----------------------|
     A---------------------------------------------|
     E---------------------------------------------|
 
Гит.1E|--3-------3-------3-------3-------|-6-------6-------6---------------|
     H|--4-------4-------4-------4-------|-8-------8-------6---------------|
     G|--5---|-|-5---|-|-5---|-|-5---|-|-|-8---|-|-8---|-|-7---------------|
     D|--5---|-|-5---|-|-5---|-|-5---|-|-|-8---|-|-8---|-|-8---------------|
     A|--3---|-|-3---|-|-3---|-|-3---|-|-|-6---|-|-6---|-|-8---------------|
     E|--3-------3-------3-------3-------|-6-------6-------6---------------|
      |                                  |                                 |
Гит.2E---------------------------------------------|
     H---------------------------------------------|
     G|--5-----------------------8-7-5---|-5-------3---5-------------------|
     D---------------------8-|-----5-----------3---------------|
     A---------------------------------------------|
     E---------------------------------------------|

3-й КУПЛЕТ
ПРИПЕВ
Далее СОЛЯК: (неполный:(((((
E------------------------------------------------|
H|-8^------8^------8^----------8-----------------------------|
G|-7^------7^------7^-7p0-8-10---8~~|(8)~~-----10-10-10-8h10p87---------|
D----------------------------------------10-8----|
A-------------------------------------------11-8-|
E------------------------------------------------|

E---------------------------------------------|
H---------------------------------------------|
G-----------------------------------------12--|
D-..........----------------------------------|
A|-10-----------------------------------------------------|
E---------------------------------------------|

E|-11--10---------------------------|-13-13-13-13-11-10---------------|
H|---------13-11h13p11--11----11-13-11--------11~~~~~-----|
G-------12---------------------------------10-|
D---------------------------------------------|
A---------------------------------------------|
E---------------------------------------------|

E---------------------------------------------|
H---------------------------------------------|
G|-10--8--8--........------------------------------------|
D------------------------------------/8---6---|
A---------------------------------------------|
E---------------------------------------------|

E-----------------------------8---------------|
H---------------8-------|-9--8h9p8p6------------------8-8-|
G|----------5---7---8-----------------8-------------------|
D|--5-----------------------------------------------------|
A---------------------------------------------|
E---------------------------------------------|

E|----11-10-8---------------------------------------------|
H|-9---------11p9p8-.......-------------------------------|
G---------------------------------------------|
D-----------------------------------------6---|
A---------------------------------------------|
E---------------------------------------------|

E-----------------------------8^--8^--8^--8^--|
H---------------8-------|-9--8h9p8p6----------------------|
G|----------5---7---8-----------------8-------------------|
D|--5-----------------------------------------------------|
A---------------------------------------------|
E---------------------------------------------|

E|-8^--8^--8^--------8p6-8p6-8p6-8p6-8p6-|-8-------------------------6|
H-----------------------|---8-6-8p6---------6-8-6-8-----6-|
G---------------------------------------------|
D---------------------------------------------|
A---------------------------------------------|
E---------------------------------------------|

E---------------------------------------------|
H|-6-------------8----------------------------------------|
G|-------8-8-------8---....--------------------8---9---10-|
D---------------------------------------------|
A---------------------------------------------|
E---------------------------------------------|
 ПОСЛЕДНИЙ РАЗ ПРИПЕВ ИГРАТЬ В Dm КЛЮЧЕ ( Dm, F, C)


Текст, аккорды и табулатура для песни "Я свободен!", исполняет "Кипелов Валерий".
Используемые в песне аккорды можно найти в разделе Как брать аккорды. Аккорды для шестиструнной гитары. Другие песни можно найти на нашем сайте, воспользовавшись алфавитным указателем вверху страницы.


Слушать онлайн Я свободен


КипеловЯ свободен на Яндекс.Музыке


 
Ошибка в тексте? Выделите ошибку и нажмите Ctrl+Enter