Cm#                     Gm#
e|-----------|-----------|-----------|-----------|
H|-----------|-----------|-----------|-----------|
G|-----------|-----------|-----------|-----------|
D|-----------|-6-6-6-4---|-----------|-----------|
A|-4-------4-|---------7-|-6---------|-----------|
E|-----------|-----------|-----4-----|-----------|

  H                       A                       Cm#
e|-----------|-----------|-----------|-----------|---
H|-----------|-----------|-----------|-----------|---
G|-----------|-----------|-----------|-----------|---
D|-----------|-4-4-4-----|-----------|-----------|---
A|-6---------|-------7-6-|-4-----4---|-7---------|-4-
E|-----------|-----------|-----------|-----------|---

C#m
Слишком много зимы на короткие дни
G#m
Если ты не звонишь - признак смерти весны
C
Группа крови зависит от курса валют
A
Мы не ждем перемен, тишина – абсолют

Когда больше чем надо, когда меньше чем есть
СМС не поможет - не спасет даже месть,
Телевизор смеется, но уже не смешно,
Звезда по имени солнце не греет давно

Cm#                Gm#
Когда мне больно, когда мне темно,
Fm#               H                 (A)
Я слушаю громко группу "Кино"! (2 раза)

Это может быть стук, а может быть правда,
Может вчера, а может быть - завтра,
Все опять начнется, как спам, антивирус
Уже не поможет нам, никто не поможет нам!

Ни начальник Камчатки, ни последний герой,
Мама-анархия придет за тобой,
И никто никогда ничего не узнает,
И все, кто ложаться спать, сон потеряют.

Когда мне больно, когда мне темно,
Я слушаю громко группу "Кино"! (2 раза)

(речитатив)
Ты знаешь: люди делятся на две категории:
одни сидят на трубах, другим нужны деньги.
На трубе сидим мы...

(Модуляция в тональность D#m)
Dm#(VI)            Am#(VI) 
Когда нам больно, когда нам темно,
Gm#                C# 
Мы слушаем громко группу "Кино"! (2 раза)

	
	
	        
Комментарий автора:

Текст, аккорды и табулатура для песни "Провода - Про Кино", исполняет "Кино".
Используемые в песне аккорды можно найти в разделе Как брать аккорды. Аккорды для шестиструнной гитары. Другие песни можно найти на нашем сайте, воспользовавшись алфавитным указателем вверху страницы.


 
Ошибка в тексте? Выделите ошибку и нажмите Ctrl+Enter