Вступление:

Гитара:
E|---------------------------------------------------------------|
H|--------------0-1-3-3-3-3-3-1-0--1-1-1-1-1-1-0-1-3-3-3-3-3-1-0-|
G|-2-2-2-2-2-2---------------------------------------------------|
D|---------------------------------------------------------------|
A|---------------------------------------------------------------|
E|---------------------------------------------------------------|

Бас-гитара:
4|------------------------
3|------------------------
2|-0-0-2-0-3-0-2-0----------------
1|------------------3-3-3-3-3-3-

 Am             G                Am         G
Мы хотим видеть дальше, чем окна дома напротив,
 Am            F              Em
Мы хотим жить, мы живучи, как кошки.
И вот мы пришли заявить о своих правах: "Да!"
Слышишь шелест плащей - это мы...

ПРИПЕВ:
        C      G                  Am  D
        Дальше действовать будем мы!

E|----------------------|
H|-3-3-1--3-3-3-1-0-----|
G|----------------------|
D|----------------------|
A|----------------------|
E|----------------------|

Мы родились в тесных квартирах новых районов,
Мы потеряли невинность в боях за любовь.
Нам уже стали тесны одежды,
Сшитые вами для нас одежды,
И вот мы пришли сказать вам о том, что дальше...

Припев:

Дальше действовать будем мы!


Текст, аккорды и табулатура для песни "Дальше, действовать будем мы.", исполняет "Кино".
Используемые в песне аккорды можно найти в разделе Как брать аккорды. Аккорды для шестиструнной гитары. Другие песни можно найти на нашем сайте, воспользовавшись алфавитным указателем вверху страницы.


 
Ошибка в тексте? Выделите ошибку и нажмите Ctrl+Enter