--------------------------------------------------------------------------------
			     California Waiting - Kings Of Leon
-------------------------------------------------------------------------------

Tabbed by: Barney (furry monkey)

Tuning: Drop D, low to high :  D A D G B e

 Intro
e|---------------------------------------------------------------------------|
B|---------------------------------------------------------------------------|
G|---------------------------------------------------------------------------|
D|---------------------------------------------------------------------------|
A|-7-5-2-7-5-7-9-7-7-5-0-7-5-7-9-7-7-5-2-7-5-7-9-7-7-5-0---------------------|
D|---------------------------------------------------------------------------|

 Verse 1
e|---------------------------------------------------------------------------|
B|---------------------------------------------------------------------------|
G|---------------------------------------------------------------------------|
D|---------------------------------------------------------------------------|
A|---------------------------------------------------------------------------|
D|-5-5-5-5-5-5-5-5-5-5-5-5-4-2-0-0-0-0-0-0-0-0-0-0-0-0-0-0-X-3---------------|

 Chorus
e|---------------------------------------------------------------------------|
B|-12-12-10-10---------------------------------------------------------------|
G|-12-12-10-10---------------------------------------------------------------|
D|-12-12-10-10-5-5-5-5-5-0-0-0-0-0-5-5-5-5-5-0-0-0-0-0-5-5-5-5-5-0-0-0-0-0---|
A|-10-10-8--8--5-5-5-5-5-0-0-0-0-0-5-5-5-5-5-0-0-0-0-0-5-5-5-5-5-0-0-0-0-0---|
D|-------------5-5-5-5-5-0-0-0-0-0-5-5-5-5-5-0-0-0-0-0-5-5-5-5-5-0-0-0-0-0---|
 
e|---------------------------------------------------------------------------|
B|---------------------------------------------------------------------------|
G|---------------------------------------------------------------------------|
D|-------------5-5-5-5-5-0-0-0-0-0-------------------------------------------|
A|-------------5-5-5-5-5-0-0-0-0-0-------------------------------------------|
D|-------------5-5-5-5-5-0-0-0-0-0-------------------------------------------|

 Verse 2

e|---------------------------------------------------------------------------|
B|---------------------------------------------------------------------------|
G|---------------------------------------------------------------------------|
D|-5---------------------------0-0-0-0-0-0-0-5-5-5-5-5-5-5-4-2-0-4-7-0-------|
A|-5---------------------------0-0-0-0-0-0-0-5-5-5-5-5-5-5-4-2---------------|
D|-5-5-5-5-5-5-5-5-5-5-5-5-4-2-0-0-0-0-0-0-0-5-5-5-5-5-5-5-4-2---------------|

e|---------------------------------------------------------------------------|
B|---------------------------------------------------------------------------|
G|---------------------------------------------------------------------------|
D|-5-5-5-5-5-5-5-4-2-0-4-7---------------------------------------------------|
A|-5-5-5-5-5-5-5-4-2---------------------------------------------------------|
D|-5-5-5-5-5-5-5-4-2---------------------------------------------------------|

 Chorus
e|---------------------------------------------------------------------------|
B|-12-12-10-10---------------------------------------------------------------|
G|-12-12-10-10---------------------------------------------------------------|
D|-12-12-10-10-5-5-5-5-5-0-0-0-0-0-5-5-5-5-5-0-0-0-0-0-5-5-5-5-5-0-0-0-0-0---|
A|-10-10-8--8--5-5-5-5-5-0-0-0-0-0-5-5-5-5-5-0-0-0-0-0-5-5-5-5-5-0-0-0-0-0---|
D|-------------5-5-5-5-5-0-0-0-0-0-5-5-5-5-5-0-0-0-0-0-5-5-5-5-5-0-0-0-0-0---|
 
e|---------------------------------------------------------------------------|
B|---------------------------------------------------------------------------|
G|---------------------------------------------------------------------------|
D|-------------5-5-5-5-5-0-0-0-0-0-------------------------------------------|
A|-------------5-5-5-5-5-0-0-0-0-0-------------------------------------------|
D|-------------5-5-5-5-5-0-0-0-0-0-------------------------------------------|

 Bridge
e|---------------------------------------------------------------------------|
B|---------------------------------------------------------------------------|
G|---------------------------------------------------------------------------|
D|-5-0-5-0-5---------------------------0-------------------------------------|
A|-5-0-5-0-5---------------------------0-------------------------------------|
D|-5-0-5-0-5-5-5-5-5-5-5-5-5-5-5-5-4-2-0-0-0-0-0-0-0-0-0-0-0-0-0-0-0-0-------|

e|-------------------------------------------------------------------|
B|-------------------------------------------------------------------|
G|-------------------------------------------------------------------|
D|-5---------------------------0-------------------------------------|
A|-5---------------------------0-------------------------------------|
D|-5-5-5-5-5-5-5-5-5-5-5-5-4-2-0-0-0-0-0-0-0-0-0-0-0-0-0-0-----------|

 Chorus
e|---------------------------------------------------------------------------|
B|---------------------------------------------------------------------------|
G|---------------------------------------------------------------------------|
D|-------------5-5-5-5-5-0-0-0-0-0--X-8--------------------------------------|
A|-------------5-5-5-5-5-0-0-0-0-0-------------------------------------------|
D|-------------5-5-5-5-5-0-0-0-0-0-------------------------------------------|

 End On
e|---------------------------------------------------------------------------|
B|-12------------------------------------------------------------------------|
G|-12------------------------------------------------------------------------|
D|-12------------------------------------------------------------------------|
A|-10------------------------------------------------------------------------|
D|---------------------------------------------------------------------------|

================================================================================


Текст, аккорды и табулатура для песни "California Waiting", исполняет "Kings Of Leon".
Используемые в песне аккорды можно найти в разделе Как брать аккорды. Аккорды для шестиструнной гитары. Другие песни можно найти на нашем сайте, воспользовавшись алфавитным указателем вверху страницы.


Слушать онлайн California Waiting


Kings Of LeonCalifornia Waiting на Яндекс.Музыке


 
Ошибка в тексте? Выделите ошибку и нажмите Ctrl+Enter