1      2       3           1      2       3      1      2       3      1  2   3
--------------------------|--0------------------------------|
--7--------------5H7P52--|--0------------2-5/7-|--7--------------5-2--|-2----------|
--6-----------------------|--1------------------|--6-------------------|-2----------|
--4-----------------------|--2------------------|--7-------------------|-2----------|
--0-----------------------|--4------------------|--5-------------------|-0----------|
------------------------------------------------|


                     
  1     2     3          1      2       3      1     2     3          1   2   3 
-----------------------|-0--------------7---|--5----------------------||
--7-----------5H7P52--|-0--------------7---|--5-----------7H10P75-|-7-----------||
--6--------------------|-1--------------7---|--4--------------------|-6----------*||
--7--------------------|-2--------------6---|--4--------------------|-7----------*||
--5--------------------|-4--------------7---|--5--------------------|-5-----------||
----------------------------------------------||



    1   2   3   4    1       2       3       4         1   2            
|---2------------------------|-----0-----|      
||--2-------0---2------------------------|         
||*-2-------2---2--|---6---6---6---6---6---6---6---6-|-----1-----|      
||*-2-------2---2--|-----4---4-------4-------3-------|---2-------|      
||--0-------0---0--------------------4---|-0---------|   
|------|-4-----------4-------4-----------|   

                                        [1.           ] [2.                    ]
  1            2            3     4       1    2          1     2
---------7--9--12--9--------5-------------||--0--------------------||
--7--10--------9-----12--9--7-----------|-5-----------||--0--------------------||
--7------------9------------6-----------|-7----------*||--2--------------------||
--7------------9------------7-----------|-7----6-----*||--2-----1--------------||
--9------------11-----------5-----------|-7-----------||--0--------------------||
--7------------9--------------------------||--2--------------------||


Текст, аккорды и табулатура для песни "Peace - A Theme", исполняет "King Crimson".
Используемые в песне аккорды можно найти в разделе Как брать аккорды. Аккорды для шестиструнной гитары. Другие песни можно найти на нашем сайте, воспользовавшись алфавитным указателем вверху страницы.


 
Ошибка в тексте? Выделите ошибку и нажмите Ctrl+Enter