Larks' Tongues in Aspic Part II
Date Submitted: 02-23-2000
By: Cristobal Marcoleta ([email protected])
Larks' Tongues in Aspic Part II
by King Crimson
Transcribed by Cristуbal Marcoleta

This is a very confusing piece.  I've got most of the song here, but in
some sections I have no idea what's going on.

Listen to the CD to get the right timing, it's not very complicated.

HAVE FUN!

section I


- --------------------------------------------------------------
- --------------------------------3--------3--------3-----3-----
- --------------------------------------------------------------
- -----------------------------------3--3-----3--3-----3-----3--


- ------------------------------------------------------------------
- --3--------3--------3-----3-----------6--------6-----5--3--------3
- -----------------------------------5--------5-----4---------------
- -----3--3-----3--3-----3-----3--3--------3-----------------3--3---


- -------------------------------------------12--------13-------13
- --------3-----3-----------6--4----------11--------12-------12---
- -----------------------5--------3----10--------10-------10------
- --3--3-----3-----3--3--------------9----------------------------


- ----12--5--------5--------5-----5-----5--------5--------5-----5---
- -11---------------------------------------------------------------
- -----------5--5-----5--5-----5-----5-----5--5-----5--5-----5-----5
- ------------------------------------------------------------------


- -------------------------12---------------------------
- --------6--4----------11-----------10---------10-----9
- -----5--------3----10-----------9----------9------8---
- --3--------------9-----------7----------7-------------


- --7--------7--------7-----7-----7--------7--------7-----7-----
- --------------------------------------------------------------
- -----7--7-----7--7-----7-----7-----7--7-----7--7-----7-----7--
- --------------------------------------------------------------



- ----------------------------16---------------------------------
- --------10--8------------15------------6-----------6---------5-
- -----9---------7------14------------5-----------5---------4----
- --7----------------13------------3-----------3-----------------


- ----------------------------------------------------------------
- --3---------3---------3------3------3---------3---------3------3
- ----------------------------------------------------------------
- ------3--3------3--3------3------3------3--3------3--3------3---


- ---------------------------12-
- ----------6--4----------11----
- -------5--------3----10-------
- --3--3--------------9---------


section II


- ---------------------------------------------------------------
- ----------5-----------------------------5----------------------
- ---------------------------------------------------------------
- --3----3------------------------3----3----------------------3--


- ----------------------------------------------------------------
- -----5---------------------------5---------------------------8--
- ----------------------------------------------------------------
- --3----------------------3----3----------------------6----6-----


- -----------------------------------------------------------------
- --------------8----------8----------------8---------8-----------
- -----------------------------------------------------------------
- --6--6-----6-----6----6-------6--6-----6-----6----6-------6--6---


- ------------------------------------------------------------------
- -----8----------8----------------8------------6-------------------
- ------------------------------------------------------------------
- --6-----6----6-------6--6-----6-----4-----4---------4---4-------4-


- ------------------------------------------------------------------
- --6-------------6---------------------6-------------6-------------
- ------------------------------------------------------------------
- ------4-----4---------4---4-------4-------4-----4---------4---4---


- ----------6-------
- ------------------
- --------------5---
- ------4-----------


Repeate section II


section III


  /     bass lasts this long    /
- --6-0-3-0-3-6-0-3-0-3-6-0-3-0-3-6-0-3-0-3-6/----------------------
- ------------------------------------------------------------------
- ------------------------------------------------------------------
- ------------------------------------------------------------------

                              /   bass lasts this long   /
- ------------------------6-0-3-0-3-6-0-3-0-3-6-0-3-0-3-6-0-3-0-3-
- ----------------------------------------------------------------
- ----------------------------------------------------------------
- ----------------------------------------------------------------


- --------------------------------
- --3--------3--------3-----3-----
- --------------------------------
- -----3--3-----3--3-----3-----3--


- ------------------------------------------------------------------
- --3--------3--------3-----3-----------6--------6-----5--3--------3
- -----------------------------------5--------5-----4---------------
- -----3--3-----3--3-----3-----3--3--------3-----------------3--3---


- -------------------------------------------12--------13-------13
- --------3-----3-----------6--4----------11--------12-------12---
- -----------------------5--------3----10--------10-------10------
- --3--3-----3-----3--3--------------9----------------------------


- ----12--5--------5--------5-----5-----5--------5--------5-----5---
- -11---------------------------------------------------------------
- -----------5--5-----5--5-----5-----5-----5--5-----5--5-----5-----5
- ------------------------------------------------------------------


- -------------------------12---
- --------6--4----------11------
- -----5--------3----10---------
- --3--------------9------------


section IV


- ---------------------------------------------------------------
- ----------5-----------------------------5----------------------
- ---------------------------------------------------------------
- --3----3------------------------3----3----------------------3--


- ----------------------------------------------------------------
- -----5---------------------------5---------------------------8--
- ----------------------------------------------------------------
- --3----------------------3----3----------------------6----6-----


- -----------------------------------------------------------------
- --------------8----------8----------------8---------8-----------
- -----------------------------------------------------------------
- --6--6-----6-----6----6-------6--6-----6-----6----6-------6--6---


- ------------------------------------------------------------------
- -----8----------8----------------8------------6-------------------
- ------------------------------------------------------------------
- --6-----6----6-------6--6-----6-----4-----4---------4---4-------4-


- ------------------------------------------------------------------
- --6-------------6---------------------6-------------6-------------
- ------------------------------------------------------------------
- ------4-----4---------4---4-------4-------4-----4---------4---4---


- ------------------------------------------------------------7-----
- ----------6-------------6---------------------6-------------------
- --------------------------------------------------5--5--5--------5
- ------4-------4-----4---------4---4-------4-----------------------


- ------------------7-------------7---------------------7-----------
- ------------------------------------------------------------------
- --5---5---5---5-------5--5--5---------5---5---5---5-------5--5--5-
- ------------------------------------------------------------------


- --7---------------------7-------------7---------------------7-----
- ------------------------------------------------------------------
- --------5---5---5---5-------5--5--5---------5---5---5---5---------
- ----------------------------------------------------------------3-


- ------------------------------------------------------------------
- --------5---------------------5-------------5---------------------
- ------------------------------------------------------------------
- -3--3---------3---3---3---3-------3--3--3---------3---3---3---3---


- ------------------------------------------------------------------
- --5-------------5---------------------5-------------8-------------
- ------------------------------------------------------------------
- ------3--3--3---------3---3---3---3-------6--6--6---------6---6---


- ------------------------------------------------------------------
- ----------8-------------8---------------------8-------------8-----
- ------------------------------------------------------------------
- --6---6-------6--6--6---------6---6---6---6-------6--6--6---------


- ------------------------------------------------------------------
- ------------------8-------------6---------------------6-----------
- ------------------------------------------------------------------
- --6---6---6---6-------4--4--4---------4---4---4---4-------4--4--4-


- --------------------------------
- --6---------------------6-------
- ----------------------------(5)-x25
- --------4---4---4---4-----------


section V


bass only

- ----------------------------------------------------------------
- --3--------3--------3-----3-------3--------3--------3-----3-----
- ----------------------------------------------------------------
- -----3--3-----3--3-----3-----3-------3--3-----3--3-----3-----3--


crazy part, cool!

- ---------------------------------------------
- ---------------------------------------------
- ---------------------------------------------
- --1--3--4----4--3----1--3----3--4----4--3----repeat 14 times


repeat section IV except let final repeat fade out

Phew!
FINALE!!!



Comments and suggestions send email to [email protected]
Cristobal A. Marcoleta Friedl

RUSH ON!!
VIVA CHILE MIERDA!!


Текст, аккорды и табулатура для песни "Larks Tongues In Aspic Part Ii", исполняет "King Crimson".
Используемые в песне аккорды можно найти в разделе Как брать аккорды. Аккорды для шестиструнной гитары. Другие песни можно найти на нашем сайте, воспользовавшись алфавитным указателем вверху страницы.


 
Ошибка в тексте? Выделите ошибку и нажмите Ctrl+Enter