Акустическая версия. Песня с последнего альбома King Crimson "The ConstruKction Of Light".

----------------------------------------------|
----------------------------------------------|
|-----7-----7---------7-----7---------7-----7---------5---|
----------------------------------------4-----|
|---9-----9-----9---9-----9-----9---9-----9-----9---------|
|-7-----7-----7---6-----6-----6---5-----5-----5---4-------|

----------------------------------------------|
----------------------------------------------|
|-----5-----5---------5-----5---------5-----5---------3---|
----------------------------------------2-----|
|---7-----7-----7---7-----7-----7---7-----7-----7---------|
|-5-----5-----5---4-----4-----4---3-----3-----3---2-------|
"tragedys		 of Kennedys,		         
refugees, 	         AIDS disease

----------------------------------------------|
----------------------------------------------|
|-----3-----3---------3-----3---------3-----3---------1---|
----------------------------------------0-----|
|---5-----5-----5---5-----5-----5---5-----5-----5---------|
|-3-----3-----3---2-----2-----2---1-----1-----1---0-------|
    photos of		 Hiroshima,		    
    the Holocaust,		Kosovo

----------------------------------------------|
|-----9-----9---------9-----9---------9-----9---------7---|
----------------------------------------5-----|
|--10----10----10--10----10----10--10----10----10---------|
|-8-----8-----8---7-----7-----7---6-----6-----6---5-------|
----------------------------------------------|
   Tim McVeigh,	Saddam Hussein,	
   the bombing of the World Trade

----------------------------------------------|
|-----7-----7---------7-----7---------7-----7---------5---|
----------------------------------------3-----|
|---8-----8-----8---8-----8-----8---8-----8-----8---------|
|-6-----6-----6---5-----5-----5---4-----4-----4---3-------|
----------------------------------------------|
   Hostages		 In Bosnia, 		    
   atrocities, 		South Africa

----------------------------------------------|
|-----5-----5---------5-----5---------5-----5---------3---|
----------------------------------------1-----|
|---6-----6-----6---6-----6-----6---6-----6-----6---------|
|-4-----4-----4---3-----3-----3---2-----2-----2---1-------|
----------------------------------------------|
abortion and	 Kevorkian,	   Vietnam,	   Napalm


Текст, аккорды и табулатура для песни "I Have A Dream", исполняет "King Crimson".
Используемые в песне аккорды можно найти в разделе Как брать аккорды. Аккорды для шестиструнной гитары. Другие песни можно найти на нашем сайте, воспользовавшись алфавитным указателем вверху страницы.


 
Ошибка в тексте? Выделите ошибку и нажмите Ctrl+Enter