Song: Self-revolution
Artist: Killswitch Engage
Album: Alive or Just Breathing
Tabbed by: Christian / [email protected]


PM - Palm mute
h - Hammer on
p - Pull off
/ - Slide up
 - Slide down
///X - Scratch string with pick
Triplets - Play the notes really fast


Tuning: C G C F A D


Intro and Verse - Guitar 1
|-------------------------------------------|
|-------------------------------------------|
|-----------------------------------2h3p2---| x6
|--------------------------------3--------3-|
|-3h5-3h5-----------3h5-3h5--3-0------------|
|-0---0-----7-3-5---0---0-------------------|


Intro and Verse - Guitar 2
|----------------------------------|
|----------------------------------|
|----------------------------------|
|-0-0-0-0-0-0-0-0--0-0-0-0-0-0---0-|
|-0-0-0-0-0-0-0-0--0-0-0-0-0-0---0-|
|-0-0-0-0-0-0-0-0--0-0-0-0-0-0---0-|
PM- - - - - - - -  - - - - - - 


Bridge
|-------------------------------------------------------|
|-------6/8-8-8-8-8-8/10--10-10-6/8-8-8-8-6/8-8-8-8-8-8-|
|-------5/7-7-7-7-7-7/-9---9--9-5/7-7-7-7-5/7-7-7-7-7-7-| x2
|-------3/5-5-5-5-5-5/-7---7--7-3/5-5-5-5-3/5-5-5-5-5-5-|
|-------3/5-5-5-5-5-5/-7---7--7-3/5-5-5-5-3/5-5-5-5-5-5-|
|-///X--------------------------------------------------|


Verse
|---------------------------------------------------------------|
|---------------------------------------------------------------|
|---------------------------------------------------------------| x1
|-0-2-3-0-3-2-0--3--0-2-3-0-3-2-0--3--0-2-3-0-3-2-0--3-2-0------|
|-0-2-3-0-3-2-0-----0-2-3-0-3-2-0-----0-2-3-0-3-2-0---------(3)-|
|-0-2-3-0-3-2-0-----0-2-3-0-3-2-0-----0-2-3-0-3-2-0-------------|
PM- - - - - - -     - - - - - - -     - - - - - - - 


|------------------------------------------------------------|
|------------------------------------------------------------|
|------------------------------------------------------------| x1
|-0-2-3-0-3-2-0--3--0-2-3-0-3-2-0--3--0-2-3-0-3-2-0--3-2-0-0-|
|-0-2-3-0-3-2-0-----0-2-3-0-3-2-0-----0-2-3-0-3-2-0--------0-|
|-0-2-3-0-3-2-0-----0-2-3-0-3-2-0-----0-2-3-0-3-2-0----------|
PM- - - - - - -     - - - - - - -     - - - - - - - 


Verse
|---------------------------------------------------------------|
|---------------------------------------------------------------|
|---------------------------------------------------------------| x1
|-0-2-3-0-3-2-0--3--0-2-3-0-3-2-0--3--0-2-3-0-3-2-0--3-2-0------|
|-0-2-3-0-3-2-0-----0-2-3-0-3-2-0-----0-2-3-0-3-2-0---------(3)-|
|-0-2-3-0-3-2-0-----0-2-3-0-3-2-0-----0-2-3-0-3-2-0-------------|
PM- - - - - - -     - - - - - - -     - - - - - - - 


|------------------------------------------------------------|
|------------------------------------------------------------|
|------------------------------------------------------------| x1
|-0-2-3-0-3-2-0--3--0-2-3-0-3-2-0--3--0-2-3-0-3-2-0--3-2-0-0-|
|-0-2-3-0-3-2-0-----0-2-3-0-3-2-0-----0-2-3-0-3-2-0--------0-|
|-0-2-3-0-3-2-0-----0-2-3-0-3-2-0-----0-2-3-0-3-2-0----------|
PM- - - - - - -     - - - - - - -     - - - - - - - 


|---------------------------------------------------|
|---------------------------------------------------|
|-5/7-5/7-------------------5/7-5/7---------2h3p2---| x2
|-5/7-5/7--0-0-0-0----------5/7-5/7------3--------3-|
|-3/5-3/5--0-0-0-0----------3/5-3/5--3-0------------|
|----------0-0-0-0--7-3-5---------------------------|
PM         - - - -



Verse
|---------------------------------------------------------------|
|---------------------------------------------------------------|
|---------------------------------------------------------------| x1
|-0-2-3-0-3-2-0--3--0-2-3-0-3-2-0--3--0-2-3-0-3-2-0--3-2-0------|
|-0-2-3-0-3-2-0-----0-2-3-0-3-2-0-----0-2-3-0-3-2-0---------(3)-|
|-0-2-3-0-3-2-0-----0-2-3-0-3-2-0-----0-2-3-0-3-2-0-------------|
PM- - - - - - -     - - - - - - -     - - - - - - - 


|------------------------------------------------------------|
|------------------------------------------------------------|
|------------------------------------------------------------| x1
|-0-2-3-0-3-2-0--3--0-2-3-0-3-2-0--3--0-2-3-0-3-2-0--3-2-0-0-|
|-0-2-3-0-3-2-0-----0-2-3-0-3-2-0-----0-2-3-0-3-2-0--------0-|
|-0-2-3-0-3-2-0-----0-2-3-0-3-2-0-----0-2-3-0-3-2-0----------|
PM- - - - - - -     - - - - - - -     - - - - - - - 


Verse
|---------------------------------------------------------------|
|---------------------------------------------------------------|
|---------------------------------------------------------------| x1
|-0-2-3-0-3-2-0--3--0-2-3-0-3-2-0--3--0-2-3-0-3-2-0--3-2-0------|
|-0-2-3-0-3-2-0-----0-2-3-0-3-2-0-----0-2-3-0-3-2-0---------(3)-|
|-0-2-3-0-3-2-0-----0-2-3-0-3-2-0-----0-2-3-0-3-2-0-------------|
PM- - - - - - -     - - - - - - -     - - - - - - - 


|-------------------------------------------------------------------|
|-------------------------------------------------------------------|
|-----------------------------------------------------------2h3p2---| x1
|-0-2-3-0-3-2-0--3--0-2-3-0-3-2-0--3--0-2-3-0-3-2-0------3--------3-|
|-0-2-3-0-3-2-0-----0-2-3-0-3-2-0-----0-2-3-0-3-2-0--3-0------------|
|-0-2-3-0-3-2-0-----0-2-3-0-3-2-0-----0-2-3-0-3-2-0-----------------|
PM- - - - - - -     - - - - - - -     - - - - - - -


Chorus - Guitar 1
|-----------------------------------|
|-----------------------------------|
|-----------------------------------| x1
|-3-3-3-3-7-8-8-8-8-3-3-3-3-5-5-5-5-|
|-3-3-3-3-7-8-8-8-8-3-3-3-3-5-5-5-5-|
|-3-3-3-3-7-8-8-8-8-3-3-3-3-5-5-5-5-|


|-----------------------------------|
|-----------------------------------|
|-----------------------------------| x1
|-5-5-5-5-7-8-8-8-8-3-3-3-3-5-5-5-5-|
|-5-5-5-5-7-8-8-8-8-3-3-3-3-5-5-5-5-|
|-5-5-5-5-7-8-8-8-8-3-3-3-3-5-5-5-5-|


Chorus - Guitar 2 (play around with this part)
|-----------------------------------|
|-----------------------------------|
|-9-10-10-9-10-9-10-9-12-9-10-9-9-9-| x2
|-----------------------------------|
|-----------------------------------|
|-----------------------------------|


Bridge - Triplets
|------------------------------------------------------------------|
|------------------------------------------------------------------|
|------------------------------------------------------------------| x1
|-0-0-0--0-0-0--0-0-0--0-0-0--0-0-0--0-0-0--0-0-0--0-0-0--0-0-0--0-|
|-0-0-0--0-0-0--0-0-0--0-0-0--0-0-0--0-0-0--0-0-0--0-0-0--0-0-0--0-|
|-0-0-0--0-0-0--0-0-0--0-0-0--0-0-0--0-0-0--0-0-0--0-0-0--0-0-0--0-|
PM- - -  - - -  - - -  - - -  - - -  - - -  - - -  - - -  - - -  -


Triplets
|-----------------------------------------------------------------------|
|-----------------------------------------------------------------------|
|-----------------------------------------------------------------------| x4
|-0-0-0--0-0-0--0-0-0--0-0-0--0-0-0--0-0-0--0-0-0--0-0-0--0-0-0---------|
|-0-0-0--0-0-0--0-0-0--0-0-0--0-0-0--0-0-0--0-0-0--0-0-0--0-0-0--2p0--2-|
|-0-0-0--0-0-0--0-0-0--0-0-0--0-0-0--0-0-0--0-0-0--0-0-0--0-0-0---------|
PM- - -  - - -  - - -  - - -  - - -  - - -  - - -  - - -  - - -


Triplets
|----------------------------------------------------------------------------------------|
|----------------------------------------------------------------------------------------|
|----------------------------------------------------------------------------------------| x2
|-0-0-0--0-0-0--0-0-0--0-0-0------------------3-3-3--3-3-3--3-3-3--3-3-3-----------------|
|-0-0-0--0-0-0--0-0-0--0-0-0--2p0--2p0--------3-3-3--3-3-3--3-3-3--3-3-3--2p0--2p0-------|
|-0-0-0--0-0-0--0-0-0--0-0-0-----------0-5h7--3-3-3--3-3-3--3-3-3--3-3-3-----------0-4h6-|
PM- - -  - - -  - - -  - - -                  - - -  - - -  - - -  - - -


Chorus - Guitar 1
|-----------------------------------|
|-----------------------------------|
|-----------------------------------| x1
|-3-3-3-3-7-8-8-8-8-3-3-3-3-5-5-5-5-|
|-3-3-3-3-7-8-8-8-8-3-3-3-3-5-5-5-5-|
|-3-3-3-3-7-8-8-8-8-3-3-3-3-5-5-5-5-|


|-----------------------------------|
|-----------------------------------|
|-----------------------------------| x1
|-5-5-5-5-7-8-8-8-8-3-3-3-3-5-5-5-5-|
|-5-5-5-5-7-8-8-8-8-3-3-3-3-5-5-5-5-|
|-5-5-5-5-7-8-8-8-8-3-3-3-3-5-5-5-5-|


Chorus - Guitar 2 (play around with this part)
|------------------------------------|
|------------------------------------|
|--9-10-10-9-10-9-10-9-12-9-10-9-9-9-| x2
|------------------------------------|
|------------------------------------|
|------------------------------------|


Interlude
|---------------------------------------------------|
|---------------------------------------------------|
|-5/7-5/7-------------------5/7-5/7---------2h3p2---| x2
|-5/7-5/7--0-0-0-0----------5/7-5/7------3--------3-|
|-3/5-3/5--0-0-0-0----------3/5-3/5--3-0------------|
|----------0-0-0-0--7-3-5---------------------------|
PM         - - - -


Interlude 2 - Guitar 1
|-------------------------------------------|
|-------------------------------------------|
|-----------------------------------2h3p2---| x2
|--------------------------------3--------3-|
|-3h5-3h5-----------3h5-3h5--3-0------------|
|-0---0-----7-3-5---0---0-------------------|



Interlude 2 - Guitar 2
|----------------------------------|
|----------------------------------|
|----------------------------------|
|-0-0-0-0-0-0-0-0--0-0-0-0-0-0---0-|
|-0-0-0-0-0-0-0-0--0-0-0-0-0-0---0-|
|-0-0-0-0-0-0-0-0--0-0-0-0-0-0---0-|
PM- - - - - - - -  - - - - - - 


|---------|
|---------|
|---------| x1
|-10--12-|
|-10--12-|
|-10--12-|


Текст, аккорды и табулатура для песни "Self Revolution", исполняет "Killswitch Engage".
Используемые в песне аккорды можно найти в разделе Как брать аккорды. Аккорды для шестиструнной гитары. Другие песни можно найти на нашем сайте, воспользовавшись алфавитным указателем вверху страницы.


 
Ошибка в тексте? Выделите ошибку и нажмите Ctrl+Enter