Song: Numbered Days
Artist: Killswitch Engage
Album: Alive or Just Breathing
Tabbed by: Christian / [email protected]

p - Pull off
PM - Palm mute
 - Slide down
X - Scratch string with pick
() - Pinch harmonic and vibrato
h - Hammer on

Tuning: C G C F A D


Intro
|--------------------------|
|--------------------------|
|--------------------------| x1
|-0-0--1p0-3p0-4p0-3p0-1p0-|
|-0-0--1p0-3p0-4p0-3p0-1p0-|
|-0-0--1p0-3p0-4p0-3p0-1p0-|
PM- -


|---------------------------------------------------|
|---------------------------------------------------|
|---------------------------------------------------| x1
|-0-0--1p0-3p0-4p0-3p0-1p0---0-0-1-0---0-0-1-0--10-|
|-0-0--1p0-3p0-4p0-3p0-1p0---0-0-1-0---0-0-1-0--10-|
|-0-0--1p0-3p0-4p0-3p0-1p0---0-0-1-0---0-0-1-0--10-|
PM- -                        - - - -   - - - -


Guitar 1
|------------------------------------------|
|------------------------------------------|
|-----------------------7------------------| x1
|-0-0-0----0-0-3----0-0------0-0-0---------|
|-0-0-0----0-0-3----0-0-5----0-0-0---------|
|-0-0-0----0-0-3----0-0------0-0-0----X-|
PM- -      - -      - -      - -


Guitar 2
|--------------------------|
|------8-------------8-----|
|-7------7-------------7---| x1
|---5------5-----5-------5-|
|-----5------5-----5-------|
|--------------------------|


Verse
|---------------------------------------------------------------------------|     |-----|
|---------------------------------------------------------------------------|     |-----|
|---------------------------------------------------------------------------|x4
|-----| x1
|-0-0--1p0-3p0-4p0-3p0-1p0--0-0-0-0-0-0--1p0--0-0-0-0-0-0--1p0--0-0-0-0-0-0-|     |-(5)-|
|-0-0--1p0-3p0-4p0-3p0-1p0--0-0-0-0-0-0--1p0--0-0-0-0-0-0--1p0--0-0-0-0-0-0-|     |-----|
|-0-0--1p0-3p0-4p0-3p0-1p0--0-0-0-0-0-0--1p0--0-0-0-0-0-0--1p0--0-0-0-0-0-0-|     |-----|
PM- -                       - - - - - -       - - - - - -       - - - - - -


Chorus
|-----------------------------------------------------------|
|-----------------------------------------------------------|
|-----------------------------------------------------------| x4
|--------------------------------------------------2p1--(2)-|
|-----5-----5-----1-----1-----------1-----3-----5-----------|
|-0-0---0-0---0-0---0-0---0-0-3-0-0---0-0---0-0-------------|
PM- -   - -   - -   - -   - -   - -   - -   - -


|----------------------------------------------|     |-----|
|----------------------------------------------|     |-----|
|----------------------------------------------| x4  |-----| x1
|-0-0--1p0-3p0-4p0-3p0-1p0---0-0-1-0---0-0-1-0-|     |-(5)-|
|-0-0--1p0-3p0-4p0-3p0-1p0---0-0-1-0---0-0-1-0-|     |-----|
|-0-0--1p0-3p0-4p0-3p0-1p0---0-0-1-0---0-0-1-0-|     |-----|
PM- -                        - - - -   - - - -


Chorus
|-----------------------------------------------------------|
|-----------------------------------------------------------|
|-----------------------------------------------------------| x4
|--------------------------------------------------2p1--(2)-|
|-----5-----5-----1-----1-----------1-----3-----5-----------|
|-0-0---0-0---0-0---0-0---0-0-3-0-0---0-0---0-0-------------|
PM- -   - -   - -   - -   - -   - -   - -   - -


Guitar 1
|------------------|     |-----|
|------------------|     |-----|
|------------------| x2  |-----| x1
|-0----3----5----8-|     |-----|
|-0----3----5----8-|     |-(2)-|
|-0----3----5----8-|     |-----|


Guitar 2
|-----------------------------------------------------------------------------------------------------|
|-----------------------------------------------------------------------------------------------------|
|-----------------------------------------------------------------------------------------------------|x4
|555555-333333-555555-777777-555555-333333-111111---555555-333333-555555--999999--777777-555555-333333|
|-----------------------------------------------------------------------------------------------------|
|-----------------------------------------------------------------------------------------------------|


Fill
|----------------|
|----------------|
|----------------| x1
|-0-5-0-3-3--3-0-|
|-0-5-0-3-3--3-0-|
|-0-5-0-3-3--3-0-|
PM-   -  


Chorus
|-------------------------------------------------------------------------|
|---------------------------------------------------------10-------10-----|
|------------------------------------------------------------9---9----9---| x1
|-0-0-3------5-----3-----3h5p3--5------5-----3-----3h5p3-------7--------7-|
|-0-0-3-------------------------5-----------------------------------------|
|-0-0-3--0-0---0-0---0-0--------5--0-0---0-0---0-0------------------------|
         - -   - -   - -           - -   - -   - -

|-------------------------------------------------------------------------------| 
|-------------------------------------------------------------------------------| 
|-------------------------------------------------------------------------------| x1
|-0-0-0-0-0-3------5-----3-----3h5p3--5------5-----3-----3h5p3--8-8-8-8-8-8-8-8-| 
|-0-0-0-0-0-3-------------------------5-------------------------8-8-8-8-8-8-8-8-| 
|-0-0-0-0-0-3--0-0---0-0---0-0--------5--0-0---0-0---0-0--------8-8-8-8-8-8-8-8-| 
PM  - -        - -   - -   - -           - -   - -   - -


Bridge - Guitar 1
|--------------------------|
|--------------------------|
|--------------------------| x1
|-0---0-0---0---0-0---3--1-|
|-0---0-0---0---0-0---3--1-|
|-0---0-0---0---0-0---3--1-|
PM-   - -   -   - -


Bridge - Guitar 1
|------------------------------------------|
|------------------------------------------|
|------------------------------------------| x1
|-0---0-0---0---0-0---3---3-3---3--0-0-0-1-|
|-0---0-0---0---0-0---3---3-3---3--0-0-0-1-|
|-0---0-0---0---0-0---3---3-3---3--0-0-0-1-|
PM-   - -   -   - -   -   - -   -    - -


Bridge - Guitar 1
|------------------------------------------------|
|------------------------------------------------|
|------------------------------------------------| x1
|-0---0-0---0---0-0---0-0-0-3---3-3---3--0-0-0-1-|
|-0---0-0---0---0-0---0-0-0-3---3-3---3--0-0-0-1-|
|-0---0-0---0---0-0---0-0-0-3---3-3---3--0-0-0-1-|
PM-   - -   -   - -   - - - -   - -   -    - -


Bridge - Guitar 2
|--------------------------------------------------------------------------------------------------|
|-6-6-6h8p6-----6-6-6-6--6--6-6-6-6h8p6-----6-6-6--8-8-8--8h10p8------8-8-8-8--8--8-8-8--6h8p6-----|
|-----------8p7-------------------------8p7----------------------10p9--------------------------8p7-| x3
|--------------------------------------------------------------------------------------------------|
|--------------------------------------------------------------------------------------------------|
|--------------------------------------------------------------------------------------------------|
PM- -           - - - -     - - -           - - -    - -              - - - -     - - -


Chorus
|------------------------------------------------------------------------------|
|--------------------------------------------------------------10-------10-----|
|-----------------------------------------------------------------9---9----9---| x1
|-0-0-0-0-0-3------5-----3-----3h5p3--5------5-----3-----3h5p3------7--------7-|
|-0-0-0-0-0-3-------------------------5----------------------------------------|
|-0-0-0-0-0-3--0-0---0-0---0-0--------5--0-0---0-0---0-0-----------------------|
PM  - -        - -   - -   - -           - -   - -   - -


|-------------------------------------------------------------------------------| 
|-------------------------------------------------------------------------------| 
|-------------------------------------------------------------------------------| x1
|-0-0-0-0-0-3------5-----3-----3h5p3--5------5-----3-----3h5p3--8-8-8-8-8-8-8-8-| 
|-0-0-0-0-0-3-------------------------5-------------------------8-8-8-8-8-8-8-8-| 
|-0-0-0-0-0-3--0-0---0-0---0-0--------5--0-0---0-0---0-0--------8-8-8-8-8-8-8-8-| 
PM  - -        - -   - -   - -           - -   - -   - -


Outro
|---------------------------------------------------------------------------|     |-----|
|---------------------------------------------------------------------------|     |-----|
|---------------------------------------------------------------------------| x4  |-----| x1
|-0-0--1p0-3p0-4p0-3p0-1p0--0-0-0-0-0-0--1p0--0-0-0-0-0-0--1p0--0-0-0-0-0-0-|     |-(5)-|
|-0-0--1p0-3p0-4p0-3p0-1p0--0-0-0-0-0-0--1p0--0-0-0-0-0-0--1p0--0-0-0-0-0-0-|     |-----|
|-0-0--1p0-3p0-4p0-3p0-1p0--0-0-0-0-0-0--1p0--0-0-0-0-0-0--1p0--0-0-0-0-0-0-|     |-----|
PM- -                       - - - - - -       - - - - - -       - - - - - -


Текст, аккорды и табулатура для песни "Numbered Days", исполняет "Killswitch Engage".
Используемые в песне аккорды можно найти в разделе Как брать аккорды. Аккорды для шестиструнной гитары. Другие песни можно найти на нашем сайте, воспользовавшись алфавитным указателем вверху страницы.


 
Ошибка в тексте? Выделите ошибку и нажмите Ctrl+Enter