Tunning C G C F A D


Intro in Acoustic Guitar
Let ring this notes
|-----------------1---1---1---1-------------------1---1---1---1-----|
|-6---6---5---5---1---1---1---1---6---6---5---5---1---1---1---1-----|
|-5---5---5---5---3-------3-------5---5---5---5---3-------3---------|
|-3-------3-------3-------3-------3-------3-------3-------3---------|
|-0-------3-------1-------1-------0-------3-------1-------1---------|
|-------------------------------------------------------------------|


|-----------------1---1---1---5------------------------|
|-6---6---5---5---1---1---1-------6---6---5---5--------|
|-5---5---5---5---3-------3-------5---5---5---5--------|
|-3-------3-------3-------3-------3-------3------------|
|-0-------3-------1-------1-------0-------3------------|
|------------------------------------------------------|


Riff 1
Gtr I, II
(Repeat X2)
|-----------------------------------------------------------------|
|-----------------------------------------------------------------|
|-----------------------------------------------------------------|
|-----------------------------------------------------------------|
|4p0-0-0-4p0-0-0-4p0-0-0-4000400-4p0-0-0-4p0-0-0-4p0-0-0-40004000-|
|4p0-0-0-4p0-0-0-4p0-0-0-4000400-4p0-0-0-4p0-0-0-4p0-0-0-40004000-|
     . .     . .     . . .......     . .     . .     . . ........

Riff 2
(Repeat X4)
|-----------------------------------------------------------|
|-----------------------------------------------------------|
|-----------------------------------------------------------|
|-----------------------------------------------------------|
|-1p0-1-3-1-0----0-1-3-1-0--1p0-1-3-1-----8-----3-----5-----|
|-1p0-1-3-1-0----0-1-3-1-0--1p0-1-3-1-0-0-8-0-0-3-0-0-5-0-0-|
      . . . .    . . . . .      . . . . .   . .   . .   . .


Play 2 times Riff 1

Riff 1.2
|-------------------------------------------------------------------|
|-------------------------------------------------------------------|
|-------------------------------------------------------------------|
|-------------------------------------------------------------------|
|4p0-0-0-4p0-0-0-4p0-0-0-4000400-4p0-0-0-4p0-0-0-4p0-0-0-4p0-0-0-3--|
|4p0-0-0-4p0-0-0-4p0-0-0-4000400-4p0-0-0-4p0-0-0-4p0-0-0-4p0-0-0-3--|
     . .     . .     . . .......     . .     . .     . .     . .

Pre-Chorus (Repeat X4)
|-------------------------------------------------------|
|-------------------------------------------------------|
|-------------------------------------------------------|
|----------------------------10-10-10----75-53--------|
|--------0-------0-------0----8--7--7/8--53-31--3-----|
|0-0-0-0-0-0-0-0-0-0-0-0-0-0---0--0----0----0-----3-----|
 . . . .   . . .   . . .   .   .  .    .    .

Chorus (Repeat X4)
Gtr I
|--------------------------------------------------------------------|
|--------------------------------------------------------------------|
|--9h10--10-10-10-10--9----9--9--9--9h10--10-10-10-10--9----9--9--9--|
|-10-----10-10-10-10-10---10-10-10-10-----10-10-10-10-10---10-10-10--|
|--8------8--8--8--8--8----8--8--8--8------8--8--8--8--8----8--8--8--|
|--------------------------------------------------------------------|

Gtr II
|--------------------------------------------------------------------|
|--------------------------------------------------------------------|
|--------------------------------------------------------------------|
|-10-----------------10----------------------------------------------|
|--8------------------8------------10-----------------10-------------|
|----------------------------------10-----------------10-------------|


Gtr I                   |    This only 3 times   |
|-------------------------------------------------|
|-------------------------------------------------|
|--9h10--10-10-10-10------------------------------|
|-10-----10-10-10-10------------------------------|
|--8------8--8--8--8---------7---8p7-----3---7h8--|
|------------------------0-0---0-----0-0---0------|
                         . .   .     . .   .

Gtr II                  |    This only 3 times   |
|-------------------------------------------------|
|-------------------------------------------------|
|-------------------------------------------------|
|-------------------------------------------------|
|--8---------------8---------7---8p7-----3---7h8--|
|--8---------------8-----0-0---0-----0-0---0------|
                         . .   .     . .   .

Interlude
Gtr I, II
|---------------------------------------------------|
|---------------------------------------------------|
|----5h--5r-----------------------------------------|
|---------------------------------------------------|
|---------------------------------------------3-----|
|-7-7-------8~~~---000000-----000000-----000003-----|
  . .              ......     ......     .....


|---------------------------------------------------|
|---------------------------------------------------|
|----5h--5r-----------------------------------------|
|---7-----------------------------------------------|
|--8------------------------------------------3-----|
|-7---------8~~~---000000-----000000-----000003-----|
                   ......     ......     .....

|---------------------------------------------------|
|---------------------------------------------------|
|----5h--5r-----------------------------------------|
|---7-----------------------------------------------|
|--8------------------------------------------3-----|
|-7---------8~~~---000000-----000000-----000003-----|
                   ......     ......     .....

|---------------------------|
|---------------------------|
|----5h--5r-----------------|
|---7-----------------------|
|--8-------------8----8p7---|
|-7---------8~~~-8--0-------|
                    .

Repeat X2 Riff 2
This time Guitar II is playing this
*Release the bend faster but try to let the sound between
the bend and the release
|-----------------------------------------------------------------|
|-----------------------------------------------------------------|
|77777777777777777777777777777777777777777777777777777777777777777|
|-----------------------------------------------------------------|
|-----------------------------------------------------------------|
|-----------------------------------------------------------------|

                                                *
|-----------------------------------------------------------------|
|-----------------------------------------------------------------|
|7f7f7f7f7f7f7f7f7f7f7f7f7f7f7f7f7f7f7f7f7f7f7f7r7777777777777777-|
|-----------------------------------------------------------------|
|-----------------------------------------------------------------|
|-----------------------------------------------------------------|

Riff 3
Gtr I, II
|-----------------------------------------------------------|
|-----------------------------------------------------------|
|-----------------------------------------------------------|
|-----------------------------------------------------------|
|-1p0-1-3-1-0----0-1-3-1-0--1p0-1-3-1-----8-----3-----5-----|
|-1p0-1-3-1-0----0-1-3-1-0--1p0-1-3-1-0-0-8-0-0-3-0-0-5-0-0-|
      . . . .    . . . . .      . . . . .   . .   . .   . .

|-------------------------------------------------------------|
|-------------------------------------------------------------|
|-------------------------------------------------------------|
|-------------------------------------------------------------|
|-1p0-1-3-1-0----0-1-3-1-0--1p0-1-3-1-----8-----3-----5---3---|
|-1p0-1-3-1-0----0-1-3-1-0--1p0-1-3-1-0-0-8-0-0-3-0-0-5-0-3---|
      . . . .    . . . . .      . . . . .   . .   . .   .

Pre-Chorus (Repeat X4)
|-------------------------------------------------------|
|-------------------------------------------------------|
|-------------------------------------------------------|
|----------------------------10-10-10----75-53--------|
|--------0-------0-------0----8--7--7/8--53-31--3-----|
|0-0-0-0-0-0-0-0-0-0-0-0-0-0---0--0----0----0-----3-----|
 . . . .   . . .   . . .   .   .  .    .    .

Gtr I
|--------------------------------------------------------------------|
|--------------------------------------------------------------------|
|--9h10--10-10-10-10--9----9--9--9--9h10--10-10-10-10--9----9--9--9--|
|-10-----10-10-10-10-10---10-10-10-10-----10-10-10-10-10---10-10-10--|
|--8------8--8--8--8--8----8--8--8--8------8--8--8--8--8----8--8--8--|
|--------------------------------------------------------------------|

Gtr II
|--------------------------------------------------------------------|
|--------------------------------------------------------------------|
|--------------------------------------------------------------------|
|-10-----------------10----------------------------------------------|
|--8------------------8------------10-----------------10-------------|
|----------------------------------10-----------------10-------------|


Gtr I                   |    This only 3 times   |
|-------------------------------------------------|
|-------------------------------------------------|
|--9h10--10-10-10-10------------------------------|
|-10-----10-10-10-10------------------------------|
|--8------8--8--8--8---------7---8p7-----3---7h8--|
|------------------------0-0---0-----0-0---0------|
                         . .   .     . .   .

Gtr II                  |    This only 3 times   |
|-------------------------------------------------|
|-------------------------------------------------|
|-------------------------------------------------|
|-------------------------------------------------|
|--8---------------8---------7---8p7-----3---7h8--|
|--8---------------8-----0-0---0-----0-0---0------|
                         . .   .     . .   .

Outro in Acoustic Guitar
Let ring this notes
|-----------------1---1---1---1-------------------1---1---1---1-----|
|-6---6---5---5---1---1---1---1---6---6---5---5---1---1---1---1-----|
|-5---5---5---5---3-------3-------5---5---5---5---3-------3---------|
|-3-------3-------3-------3-------3-------3-------3-------3---------|
|-0-------3-------1-------1-------0-------3-------1-------1---------|
|-------------------------------------------------------------------|


|-----------------1---1---1---5------------------------|
|-6---6---5---5---1---1---1-------6---6---5---5--------|
|-5---5---5---5---3-------3-------5---5---5---5--------|
|-3-------3-------3-------3-------3-------3------------|
|-0-------3-------1-------1-------0-------3------------|
|------------------------------------------------------|


Текст, аккорды и табулатура для песни "My Last Serenade", исполняет "Killswitch Engage".
Используемые в песне аккорды можно найти в разделе Как брать аккорды. Аккорды для шестиструнной гитары. Другие песни можно найти на нашем сайте, воспользовавшись алфавитным указателем вверху страницы.


 
Ошибка в тексте? Выделите ошибку и нажмите Ctrl+Enter