My last seranade-killswitch engage

Tabed by:Davitt Barry

This is my first metal tab.here we go.

Intro:
D|----------------------
A|--6p5--5p6----6---6---
F|--5----5------5---5---
C|-3----3------3----3---
G|-3----3------3----3---
C|----------------------

Main riff:
D|-------------------------------------------
A|-------------------------------------------
F|-------------------------------------------
C|-3H0-00-3H0-00-3H0-00-000000000000---------
G|-3H0-00-3H0-00-3H0-00-000000000000---------
C|-3H0-00-3H0-00-3H0-00 000000000000---------x4
       **     **     ** ************

Verse:
D|-----------------------------------
A|-----------------------------------
F|-----------------------------------
C|-3H0-2320-02320-2H0-2320-3-0-3-0-5-
G|-3H0-2320-02320-2H0-2320-1-0-3-0-3-
C|-3H0-2320-02320-2H0-2320---0-3-0---X4
       ***  ****      ***    *   *

Main riff again x4

Pre Chorus:
D|-------------------------------------------------------
A|-------------------------------------------------------
F|-----------------------10-7-5/7-5/75-3/53------------
C|-3-0-00000-0000-0000-0-10-7-5/7-5/75-3/53-3-0--------
G|-3-0-00000-0000-0000-0-8--5-3/5-3/53-1/31-3-0--------
C|-3-0-00000-0000-0000-0----------------------3-0--------x4
       ****  ***  ***  *

Chorus:Guitar 1
D|------------------------------------------------
A|-6-6-6-5-5-5-5p6-6-6----------------------------
F|--5-5-5-5-5-------5-5---------------------------
C|----------------------00-2-3h2-00-2-2p3---------
G|----------------------00-------00---------------
C|----------------------00-------00---------------x4
                        **       **           
                                                 
Chorus:Guitar 2
D|-------------------------------
A|----5--------------------------
F|-10-5-10-----------------------
C|-10-3-10-00-2-3h2-00-2-2p3-----
G|-8--0-8--00-------00-----------
C|-0--0-0--00-------00-----------x4
           **       **
After playing the chorus four times play:
D|-------------------------------------------------------
A|-------------------------------------------------------
F|------5H7H5-----------------------------5H7H5---------- 
C|-000---------------000000000-00000000-3----------------
G|-000---------------000000000-00000000-3----------------
C|-000--------8~~~~~-000000000-00000000-3-------8~~~~~~~-
   ***               ********* ********                       

Verse X4 + second guitar going:
D|----------------------------------
A|----------------------------------
F|-7-----------------------10----10-
C|-X-----------------------X-----X--
G|-5(ALL-BENDING-SLIGHTLY)-8-----5--
C|----------------------------------

Pre chorus again 4 times

The chorus again 4 times

And then the outro....which is the intro!

Thank you you've been a great audiance!


Текст, аккорды и табулатура для песни "My Last Seranade", исполняет "Killswitch Engage".
Используемые в песне аккорды можно найти в разделе Как брать аккорды. Аккорды для шестиструнной гитары. Другие песни можно найти на нашем сайте, воспользовавшись алфавитным указателем вверху страницы.


 
Ошибка в тексте? Выделите ошибку и нажмите Ctrl+Enter