Intro/Verse
|---------------9---------------------9---------------------9---------------------9-------|
|------12----12---12---------12----12---12---------12----12---12---------12----12---12----|
|---11----11---------11---11----11---------11---11----11---------11---11----11---------11-|
|-9---------------------8-----------------------------------------------------------------|
|---------------------------------------------7---------------------7---------------------|
|-----------------------------------------------------------------------------------------|
                                                                        x6 (2nd verse x4)

|-----------------------------------------------------------------------------|
|-----------2---------------2---------------2---------------2---------------2-|
|-----4---4---4-------4---4---4-------4---4---4-------4---4---4-------4---4---|
|---4---4-------4---4---4-------4---4---4-------4---4---4-------4---4---4-----|
|-2---------------2---------------1---------------1---------------------------|
|-----------------------------------------------------------------0-----------|

------------------------------------------------------|
---------------2---------------2---------------2------|
-4-------4---4---4-------4---4---4-------4---4---4----|
---4---4---4-------4---4---4-------4---4---4-------4--|
------------------------------------------------------|
-----0---------------0---------------0----------------|
                                                  x2

 Chorus
|---------------------------------------------------------|-2-----2-----2---4-|
|-4---4---4---4---5---5---5---5---7---7---7---7-----------|---4-----4-----4---|
|---4---4---4---4---4---4---4---4---4---4---4---4-6-4-3-4-|-----4-----4-------|
|---------------------------------------------------------|-------------------|
|---------------------------------------------------------|-------------------|
|---------------------------------------------------------|-------------------|
                                                       x2

-----4-----4---7-----7-----7-----------|-------------------------------------|
-4-----4-----4---4-----4-----4---------|-4---4---4---4---5---5---5---5---7---|
---4-----4---------4-----4-----6-4-3-4-|---4---4---4---4---4---4---4---4---4-|
---------------------------------------|-------------------------------------|
---------------------------------------|-------------------------------------|
---------------------------------------|-------------------------------------|
                                    x2   1st ending (1:30)

---------------------|-------------------------------------------------------|
-7---7---7-----------|-4---4---5---7---5---7---5---4---4---4---5---4---------|
---4---4---4-6-4-3-4-|---4---4---4---4---4---4---4---4---4---4---4---4-6-4-3-|
---------------------|-------------------------------------------------------|
---------------------|-------------------------------------------------------|
---------------------|-------------------------------------------------------|
                  x2   2nd ending (3:00)                                  x2

 Outro (last time missing last note)
|---------------------------------------------------------|
|-4---4---4---4---5---5---5---5---7---7---7---7-----------|
|---4---4---4---4---4---4---4---4---4---4---4---4-6-4-3-4-|
|---------------------------------------------------------|
|---------------------------------------------------------|
|---------------------------------------------------------|

any questions? [email protected]
__________________________
Lyrics (azlyrics.com):

I'm coming out of my cage
And I've been doing just fine
Gotta gotta gotta be down
Because I want it all
It started out with a kiss
How did it end up like this
It was only a kiss, it was only a kiss
Now I'm falling asleep
And she's calling a cab
While he's having a smoke
And she's taking a drag
Now they're going to bed
And my stomach is sick
And it's all in my head
But she's touching his—chest
Now, he takes off her dress
Now, let me go

I just can't look its killing me
And taking control
Jealousy, turning saints into the sea
Swimming through sick lullabies
Choking on your alibis
But it's just the price I pay
Destiny is calling me
Open up my eager eyes
'Cause I'm Mr Brightside

I'm coming out of my cage
And I've been doing just fine
Gotta gotta gotta be down
Because I want it all
It started out with a kiss
How did it end up like this
It was only a kiss, it was only a kiss
Now I'm falling asleep
And she's calling a cab
While he's having a smoke
And she's taking a drag
Now they're going to bed
And my stomach is sick
And it's all in my head
But she's touching his—chest
Now, he takes off her dress
Now, let me go

I just can't look its killing me
And taking control
Jealousy, turning saints into the sea
Swimming through sick lullabies
Choking on your alibi
But it's just the price I pay
Destiny is calling me
Open up my eager eyes
'Cause I'm Mr Brightside

I never...
I never...
I never...


Текст, аккорды и табулатура для песни "Mr Brightside", исполняет "Killers".
Используемые в песне аккорды можно найти в разделе Как брать аккорды. Аккорды для шестиструнной гитары. Другие песни можно найти на нашем сайте, воспользовавшись алфавитным указателем вверху страницы.


Слушать онлайн Mr. Brightside


The KillersMr. Brightside на Яндекс.Музыке


 
Ошибка в тексте? Выделите ошибку и нажмите Ctrl+Enter