This is the eighth bar, and the bass comes in:
		     Verse
        e  S  S  Q    E S S E E e  e  Q    E S S S S E e e E E
|------11-11-11-11--|-----------8-10-11--|----------------------|
|-------------------|--------------------|---------------9-8----|
|-------------------|-6-6-6-6-6----------|-4-4-4-4-4-4-4-----9--|
|-------------------|--------------------|----------------------|


  E S S S S E Q.   S S   E S S E  E Q  E  E
|----------------------|--------------------|
|----------------------|--------------------|
|----------------------|------------9--8----|
|-8-8-8-8-7-7-8----7-7-|-8-8-8-8-10------10-|


  E S S E E e  e  Q    E S S S S E e e E E
|-----------8-10-11--|---------------------|
|--------------------|---------------9-8---|
|-6------------------|-4-4-4-4-4-4-4-----9-|
|---0-0-0-0----------|---------------------|


  E S S S S E Q.   S S   E S S E  E Q  E  E
|----------------------|--------------------|
|----------------------|--------------------|
|----------------------|------------9--8----|
|-8-8-8-8-7-7-8----7-7-|-8-8-8-8-10------10-|


  E S S E E e  e  Q    E S S S S E e e E E
|-----------8-10-11--|------------------------|
|--------------------|---------------9-8------|
|-6------------------|-4-4-4-4-4-4-4-----9----|
|---0-0-0-0----------|------------------------|


  E S S S S E Q.   S S   E S S E  E Q  E  E
|----------------------|--------------------|
|----------------------|--------------------|
|----------------------|------------9--8----|
|-8-8-8-8-7-7-8----7-7-|-8-8-8-8-10------10-|


  E S S E E e  e  Q    E S S S S E e e E E
|-----------8-10-11--|------------------------|
|--------------------|---------------9-8------|
|-6------------------|-4-4-4-4-4-4-4-----9----|
|---0-0-0-0----------|------------------------|


  E S S S S E Q.   S S   E S S E  E Q  E  E
|----------------------|--------------------|
|----------------------|--------------------|
|----------------------|------------9--8----|
|-8-8-8-8-7-7-8----7-7-|-8-8-8-8-10------10-|


  E S S E E e e Q    E S S S S E e e E E
|------------------|---------------------|
|------------------|---------------9-8---|
|-6----------------|-4-4-4-4-4-4-4-----9-|
|---0-0-0-0-0-2-3--|---------------------|


  E S S S S E Q.   S S   E S S E  E Q  E  E
|----------------------|--------------------|
|----------------------|--------------------|
|----------------------|------------9--8----|
|-8-8-8-8-7-7-8----7-7-|-8-8-8-8-10------10-|


  E S S E E e  e  Q    E S S S S E e e E E
|-----------8-10-11--|------------------------|
|--------------------|---------------9-8------|
|-6------------------|-4-4-4-4-4-4-4-----9----|
|---0-0-0-0----------|------------------------|


  E S S S S E Q.   S S   E S S E E  H
|----------------------|-----------------|
|----------------------|-----------------|
|----------------------|-----------------|
|-8-8-8-8-7-7-8----7-7-|-8-8-8-8-8-10----|


 Pre-chorus
  E S S E S S E S S E S S    E  S  S  E  S  S  E  S  S  E  S  S
|-------------------------|--------------------------------------|
|-------------------------|--------------------------------------|
|-------------------------|--------------------------------------|
|-8-8-8-8-8-8-8-8-8-8-8-8-|-10-10-10-10-10-10-10-10-10-10-10-10--|


  E S S E S S E S S E S S   E S S E S S E S S E S S
|-------------------------|-------------------------|
|-------------------------|-8-8-8-8-8-8-8-8-8-8-8-8-|
|-6-6-6-6-6-6-6-6-6-6-6-6-|-------------------------|
|-------------------------|-------------------------|


  E S S E S S E S S E S S    E  S  S  E  S  S  E  S  S  E  S  S
|-------------------------|--------------------------------------|
|-------------------------|--------------------------------------|
|-------------------------|--------------------------------------|
|-8-8-8-8-8-8-8-8-8-8-8-8-|-10-10-10-10-10-10-10-10-10-10-10-10--|


 Chorus
  E E E E E E E E   E E E E  E  E  E  E   E E E E E E E E    E  E  E  E   H
|-----------------|---------------------|-----------------|--------------------|
|-----------------|---------------------|-----------------|-------------/11----|
|-9-9-9-9-8-8-8-8-|-6-6-6-6-------------|-----------------|--------------------|
|-----------------|---------10-10-10-10-|-8-8-8-8-8-8-8-8-|-10-10-10-10--------|

Then repeat verse and pre-chorus
Then play the chorus, but with this in the last bar instead:
 

   E  E  E  E  E  E  E  E
|-------------------------|
|-------------------------|
|-------------------------|
|-10-10-10-10-10-10-10-10-|


Then play first two bars of pre-chorus, followed by the first chorus.

Then immediately play this, followed by six bars of rest:
 Interlude
   W         
|-----------|
|-----------|
|-----------|
|-12--------|

After the rests, play:
   H    E  E  Q
--------11-11--|
---------------|
---------------|
---------------|

Then repeat the verse once more, and end with
 
 W         
|-----------|
|-----------|
|-----------|
|-12--------|


Duration Legend
---------------
W = whole; H = half; Q = quarter; E = 8th; S = 16th; 
+ = note tied to previous; . = note dotted
Uncapitalized letters represent notes that are staccato (1/2 duration)
Duration letters will always appear directly above the note/fret number it represents the
duration for.  Duration letters with no fret number below them represent rests.


Текст, аккорды и табулатура для песни "Jenny Was A Friend Of Mine", исполняет "Killers".
Используемые в песне аккорды можно найти в разделе Как брать аккорды. Аккорды для шестиструнной гитары. Другие песни можно найти на нашем сайте, воспользовавшись алфавитным указателем вверху страницы.


Слушать онлайн Jenny Was A Friend Of Mine


The KillersJenny Was A Friend Of Mine на Яндекс.Музыке


 
Ошибка в тексте? Выделите ошибку и нажмите Ctrl+Enter