-------------------------------------------------------------------------------
			     STARTING LINE-Kids near water 
-------------------------------------------------------------------------------

Tabbed by:Garaham the guitar tutor 
Email:[email protected]

Tuning:DADBGe 
Intro Guitar 1 only X1 
e|---------------------------------------------------------------------------|
B|---------------------------------------------------------------------------|
G|-1212121212121212-1212121212121212-1212121212121212-1212121212121212-------|
D|---------------------------------------------------------------------------|
A|-1010101010101010-9-9-9-9-9-9-9-9--1010101010101010-1212121212121212-------|
D|---------------------------------------------------------------------------|

Main Riff Guitar 1 
e|-33333333---------------------------------33333333-------------------------|
B|-33333333---------------------------------33333333-------------------------|
G|----------121212-121212-1212-----------------------121212-1212-1212--------|
D|-22222222---------------------x 3-THEN----22222222-------------------------|
A|-33333333-101010-9-9-9--1010--------------33333333-121212-1010-9-9---------|
D|---------------------------------------------------------------------------|

Mian Riff Guitar 2 X4 
e|-33333333------------------------------------------------------------------|
B|-33333333------------------------------------------------------------------|
G|---------------------------------------------------------------------------|
D|-22222222-XX22X22----------------------------------------------------------|
A|-33333333-XX22X22----------------------------------------------------------|
D|----------XX22X22----------------------------------------------------------|

Verse Both guitars X3 but play the first chord of the verse before the break 
e|--------------33333333-----------------------------------------------------|
B|--------------33333333-----------------------------------------------------|
G|---------------------------------------------------------------------------|
D|-X2-X2-X2-----22222222-----------------------------------------------------|
A|-X2-X2-X2-----33333333-----------------------------------------------------|
D|-X2-X2-X2------------------------------------------------------------------|

Break Riff Both guitars X2 
e|----33333333-33333333------------------------------------------------------|
B|----33333333-33333333------------------------------------------------------|
G|---------------------------------------------------------------------------|
D|----22222222-22222222------------------------------------------------------|
A|----33333333-22222222------------------------------------------------------|
D|---------------------------------------------------------------------------|

Chorus Guitar 1 
e|---------------------------------------------------------------------------|
B|------------Play 3 times---------Then play this----------------------------|
G|-77777777-999-7777-121212-111111--------77777777---------------------------|
D|----------------------------------------77777777-55555555-2222222-55555555-|
A|-55555555-777-5555-101010-9-9-9---------55555555-55555555-2222222-55555555-|
E|-------------------------------------------------55555555-2222222-55555555-|

Chorus Guitar 2 
e|---------------------------------------------------------------------------|
B|-----Play this 3 times---------------Then this-----------------------------|
G|---------------------------------------77777777----------------------------|
D|--77777777-55555555--------------------77777777-55555555-22222222-55555555-|
A|--55555555-55555555--------------------55555555-55555555-22222222-55555555-|
D|-----------55555555-----------------------------55555555-22222222-55555555-|

Bridge 1 Both guitars 
e|-------555------555------555----5----5-------------------------------------|
B|-------555------555------555----5----5-------------------------------------|
G|---------------------------------------------------------------------------|
D|--2222-222-2222-222-2222-222-22-2-22-2-------------------------------------|
A|--2222-333-2222-333-2222-333-22-3-22-3-------------------------------------|
D|--2222-----2222-----2222-----22---22---------------------------------------|

Main Riff 2 Guitar 1 
e|---PLay this one time Like intro---/---33333333---Play this riff 4 times---|
B|-----------------------------------/---33333333----------------------------|
G|-1212121212121212-1212121212121212-/------------121212-121212-1212---------|
D|-----------------------------------/---22222222----------------------------|
A|-1010101010101010-9-9-9-9-9-9-9-9--/---33333333-101010-9-9-9--1010---------|
E|-----------------------------------/---------------------------------------|

Mian Riff 2 Guitar 2 x4 
e|-33333333------------------------------------------------------------------|
B|-33333333------------------------------------------------------------------|
G|---------------------------------------------------------------------------|
D|-22222222-XX22X22----------------------------------------------------------|
A|-33333333-XX22X22----------------------------------------------------------|
D|----------XX22X22----------------------------------------------------------|

Bridge 2 X4 
e|-------------------------------0-------------------------------------------|
B|-------------------------------0-------------------------------------------|
G|-------------------------------0-------------------------------------------|
D|---555555555555-0-555555555555---------------------------------------------|
A|---555555555555-0-555555555555---------------------------------------------|
D|---555555555555-0-555555555555---------------------------------------------|
     xxxxxxxxxxxx   xxxxxxxxxxxx
 
Stucture 
Intro Guitar 1 
Main Riff 
Verse 
Break
Chorus
Break 
Bridge 1 
Intro 2 Guitar 2 
Mian Riff 2 
Verse 
Break
Chorus
Break
Bridge 2 
Chorus 
| x  Mute note

===============================================================================


Текст, аккорды и табулатура для песни "Starting Line", исполняет "Kids Near Water".
Используемые в песне аккорды можно найти в разделе Как брать аккорды. Аккорды для шестиструнной гитары. Другие песни можно найти на нашем сайте, воспользовавшись алфавитным указателем вверху страницы.


 
Ошибка в тексте? Выделите ошибку и нажмите Ctrl+Enter