-------------------------------------------------------------------------------
			     Queen and three - Kids near water 
-------------------------------------------------------------------------------

Tabbed by:Jack d 
Email:[email protected]

Tuning:DADGBe
Verse Guitar 1 x5 
e|---------------------------------------------------------------------------|
B|---------------------------------------------------------------------------|
G|-----141414141414141414141414-----5-------5---1212121212121212-------------|
D|xxxx----------------------------5---5---5---5------------------------------|
A|xxxx-121212121212121212121212-3-------3-------1010101010101010-------------|
D|xxxx-----------------------------------------------------------------------|
Verse Guitar 2 x5 
e|--------------------3333333333---------------------------------------------|
B|--------------------3333333333---------------------------------------------|
G|-----777777777777----------------------------------------------------------|
D|xxxx-777777777777---2222222222---------------------------------------------|
A|xxxx-555555555555---3333333333---------------------------------------------|
D|xxxx-555555555555----------------------------------------------------------|
Chorus Guitar 1 pLAY QUIET 2 X  THEN LOUD 2X
e|---------------------------------------------------------------------------|
B|-1111-1111-1111-111--------------------------------------------------------|
G|-0000-0000-0000-000--------------------------------------------------------|
D|-0222-0222-0222-222-222----------------------------------------------------|
A|-2333-2333-2333-333-222----------------------------------------------------|
D|--------------------222----------------------------------------------------|
Chorus Guitar 2 pLAY QUIET 2X  THEN LOUD 2X
e|-3333-3333-3333-333--------------------------------------------------------|
B|-3333-3333-3333-333--------------------------------------------------------|
G|-0000-0000-0000-000--------------------------------------------------------|
D|-0222-0222-0222-222-222----------------------------------------------------|
A|-2333-2333-2333-333-222----------------------------------------------------|
D|--------------------222----------------------------------------------------|
Break Guitar 1 
This bit play once            This bit play 4 times 
e|--------------------------|------------------------------------------------|
B|--------------------------|------------------------------------------------|
G|7777-9999-1111111112121212|7s97--------------------------------------------|
D|--------------------------|------------------------------------------------|
A|5555-7777-9-9-9-9-10101010|5s755b5b5b5b5b5b--------------------------------|
D|---------------------------------------------------------------------------|
Break guitar 2 
Play once              Play 3 x   PLAY ONCE 
e|--------------------|3---33333|---------------------------------------------|
B|-3333333333333333333|3---33333|---------------------------------------------|
G|-0000000000000000000|0---00000|-12s14212121212111111999-777-----------------|
D|-2222222222222222222|2-0-22222|---------------------------------------------|
A|-2222222222222222222|3s7s33333|-10s12s101010109-9-9-777-555-----------------|
D|-0000000000000000000|---------|---------------------------------------------|

There is an outro which just uses the same pattern as the chorus except guitar 2
instead of playing The e Power chord on the second fret sometimes just slides
down to the e on the ninth fret now and again.


Текст, аккорды и табулатура для песни "Queen And Three", исполняет "Kids Near Water".
Используемые в песне аккорды можно найти в разделе Как брать аккорды. Аккорды для шестиструнной гитары. Другие песни можно найти на нашем сайте, воспользовавшись алфавитным указателем вверху страницы.


 
Ошибка в тексте? Выделите ошибку и нажмите Ctrl+Enter