PICTURE
Kid Rock and Sheryl Crow



Transcribed by Jibesh([email protected])

Hey aint this your fav song hunny?

 h   - hammer-on
 p   - pull-off
 b   - bend
 r   - bend release (if no number after the r, then release immediately)
 s   - legato slide
 S   - shift slide
  - natural harmonic
[n]  - artificial harmonic
n(n) - tapped harmonic
 =   - hold bend; also acts as connecting device for hammers/pulls
 x   - on rhythm slash represents muted slash
 




 Moderate Country Rock 


Intro
 
  G5

  Gtr I
|-^0--3-------------|------3-------------|------3-------------|------3-------------||
|-^3--3---------3---|------3---------3---|------3---------3---|------3---------3---||
|-^0------------0---|----------------0---|----------------0---|----------------0---||
|-^0----------------|--------------------|--------------------|--------------------||
|-^x----------------|--------------------|--------------------|--------------------||
|-^3----3-(3)-3---3-|--3-----3-(3)-3---3-|--3-----3-(3)-3---3-|--3-----3-(3)-3---3-||
|
| Gtr II
|-^3----------------|-(3)----------------|-(3)----------------|-(3)----------------||
|-^3----------------|-(3)----------------|-(3)----------------|-(3)----------------||
|-^0----------------|-(0)----------------|-(0)----------------|-(0)----------------||
|-^0----------------|-(0)----------------|-(0)----------------|-(0)----------------||
|-^x----------------|-(x)----------------|-(x)----------------|-(x)----------------||
|-^3----------------|-(3)----------------|-(3)----------------|-(3)----------------||


                       1st Verse
                        G5               C
|-----3-------------|------3-----------|-----0-------------|------0-------------|
|-----3---------3---|------3---------3-|--1--1---------1---|------1---------0---|
|---------------0---|----------------0-|--0------------0---|----------------0---|
|-------------------|------------------|--2----------------|--------------------|
|-------------------|------------------|--3----3-(3)-3---3-|--3-----3-(3)-3---0-|
|--3----3-(3)-3---3-|--3-----3-(3)-3---|-------------------|--------------------|
|
|-^3----------------|-(3)--------------|-^0----------------|-(0)----------------|
|-^3----------------|-(3)--------------|-^1----------------|-(1)----------------|
|-^0----------------|-(0)--------------|-^0----------------|-(0)----------------|
|-^0----------------|-(0)--------------|-^2----------------|-(2)----------------|
|-^x----------------|-(x)--------------|-^3----------------|-(3)------------2p0-|
|-^3----------------|-(3)--------------|-------------------|--------------------|





  D                            C         G5
|-----2---------2---|------2-----------|----3-------------|
|-----3---------3---|------3-------1---|----3---------3---|
|-------------------|--------------0---|--------------0---|
|--0----0-(0)-0---0-|--0-----0--2----0-|------------------|
|-------------------|-----------3------|------------------|
|-------------------|------------------|-3----3-(3)-3---3-|
|
|-^2----------------|-(2)------^0------|----3-------------|
|-^3----------------|-(3)------^1------|----3-------------|
|-^2----------------|-(2)------^0------|----0-------------|
|-^0----------------|-(0)------^2------|----0-------------|
|-------------------|----------^3------|----2-------------|
|-------------------|------------------|-3--3-------------|


  Gtr III                                                                 C
|---15-------------------------|-------------------|--------------------|--------------------|
|------15--------------12------|-------------------|--------8S10S=8-----|--------------------|
|---------0-14b15r(14)-12h==14-|-12----------------|--------7S=9S=7-----|--------------------|
|------------------------------|-------------------|--------------------|--------------------|
|------------------------------|-------------------|--------------------|--------------------|
|------------------------------|-------------------|--------------------|--------------------|
|
| Gtr I
|-------3----------------------|-----3-------------|----3---------------|----0---------------|
|-------3---------------3------|-----3---------3---|----3-----------3---|-1--1---------1-----|
|-----------------------0------|---------------0---|----------------0---|-0------------0-----|
|------------------------------|-------------------|--------------------|-2------------------|
|------------------------------|-------------------|--------------------|-3----3-(3)-3---3---|
|-3-------3-(3)-----3--------3-|--3----3-(3)-3---3-|-3----3---(3)-3-----|--------------------|
|
| Gtr II
|-3----------------------------|--3--3---(3)-3-3-3-|----3-3---(3)-3-----|-0--0---(0)-----0---|
|-3----------------------------|--3--3---(3)-3-3-3-|----3-3---(3)-3---1-|-1--1---(1)-----1---|
|-0--------------------------0-|--0--0---(0)-0-0-0-|----0-0---(0)-0-----|-0--0---(0)-----0---|
|-0---------------------0h2----|--0--0---(0)-0-0-0-|----0-0---(0)-0-----|-2--2---(2)-----2---|
|-2----------------------------|--2--2---(2)-2-2-2-|----2-2---(2)-2-----|-3--3---(3)-----3---|
|-3----------------------------|--3--3---(3)-3-3-3-|----3-3---(3)-3-3---|--------------------|


                      

                       D                             C
|------------------|-----------------------|----------------|
|------------------|-----------------------|----------------|
|------------------|-----------------------|----------------|
|------------------|-----------------------|----------------|
|------------------|-----------------------|----------------|
|------------------|-----------------------|----------------|
|
|----0-------------|-----2-----------2-----|-----2---0--0---|
|----1---------1---|-----3-----------3-----|-----3---1--1---|
|--------------0---|-----2-----------------|---------0--0---|
|------------------|---0---0---(0)-0---0---|-0-----0-2--2---|
|-3----3-(3)-3---0-|-----------------------|---------3--3---|
|------------------|-----------------------|----------------|
|
|-0--0-0---------0-|-3---2-2h3p=2------2h3p|=2---2---0--0-0-|
|-1--1-1--1----1-0-|-3---3-3---------3-----|-----3---1--1-1-|
|-0--0-0--0----0-0-|-2---2---------2-2-----|---------0--0-0-|
|-2--2-2--2--------|---0-0---------0-------|---0-----2--2-2-|
|-3--3-3-----------|-----------------------|---------3--3-3-|
|------------------|-----------------------|----------------|


  G5
|--------------------|-------------------------||
|------------------3-|---3-----------3---------||
|------------------2-|---2b3r(2)p0-2-2b3r(2)p0-||
|--------------------|-------------------------||
|--------------------|-------------------------||
|--------------------|-------------------------||
|
|----3---(3)---------|-------------------------||
|----3---(3)-3-3---3-|--------3--3-3-----------||
|----0---(0)-0-0---0-|--------0--0-0-----------||
|----0---(0)-0-0---0-|--------0--0-0-----------||
|----x-------x-x---x-|--------x--x-x-----------||
|-3--3---(3)-3-3---3-|-3------3--3-3------2----||
|
|-3--3-3-----3-------|--------3------3---------||
|-3--3-3-----3-----0-|--------3------3---------||
|-0--0-0-----0-----0-|--------0------0---------||
|-0--0-0-----0-0h2---|--------0------0---------||
|-2--2-2-----2-------|--------2------2---------||
|-3--3-3--3--3-------|-3------3----3-3----2----||


 Chorus
  Em                           D    G
|-----------------|---------------|----------------|--------------------------------------|
|-----------------|---------------|----------------|--------------------------------------|
|-(0)-------------|---------------|-------------14-|-----14pb16r(14)-12-12--14pb16r(14)---|
|-----------------|---------------|----------------|--------------------------------------|
|-----------------|---------------|----------------|--------------------------------------|
|-----------------|---------------|----------------|--------------------------------------|
|
| Gtr IV
|-----------------|---------------|-3--------------|-(3)----------------------------------|
|-----------------|---------------|-3--------------|-(3)----------------------------------|
|-----------------|---------------|-0--------------|-(0)----------------------------------|
|------x-7s9--x-7s|=9---x-7s9--7--|-0--------------|-(0)----------------------------------|
|------x-5s7--x-5s|=7---x-5s7--5--|-x--------------|--------------------------------------|
|-----------------|---------------|-3--------------|-(3)----------------------------------|
|
| Gtrs I, II
|--------0-0----0-|-0-----0-0--2--|-3--3--3-3-3--3-|--3-----------3---3-(3)--3-------3--0-|
|--------0-0----0-|-0-0---0-0--3--|-3--3--3-3-3--3-|--3-----------3---3-(3)--3-------3--0-|
|--------0-0----0-|-0-0---0-0--2--|-0--0--0-0-0--0-|--0-----------0---0-(0)--0-------0--0-|
|--2---x-0-2--x-0-|-2-2-x-0-2--0--|-0--0--0-0-0--0-|--0-----------0---0-(0)--0-------0----|
|--2---x-0-2--x-0-|-2---x-0-2-----|-2--2--2-2-2--2-|--2-----------2---2-(2)--2-------2----|
|--0---x-0-0--x-0-|-0---x-0-0-----|-3--3--3-3-3--3-|--3-----------3---3-(3)--3-------3----|



  D                   C              G
                                
|-------------------|---------------|-----------15-------------|---------------------------|
|-------------------|---------------|--------------15---15-----|-(15)------------14--------|
|-12----------------|---------------|-------------------14b16==|=(14)r(14)-12----14-12-----|
|-------------------|---------------|--------------------------|--------------14-------14--|
|-------------------|---------------|--------------------------|---------------------------|
|-------------------|---------------|--------------------------|---------------------------|
|
|--2----------------|-0-------------|-3------------------------|--(3)----------------------|
|--3----------------|-1-------------|-3------------------------|--(3)----------------------|
|--2----------------|-0-------------|-0------------------------|--(0)----------------------|
|--0----------------|-2-------------|-0------------------------|--(0)----------------------|
|-------------------|-3-------------|-x------------------------|---------------------------|
|-------------------|---------------|-3------------------------|--(3)----------------------|
|
|--2--2-2-(2)-3---1-|-0--0-0-0-0-0--|-3--3--(3)--3-------------|------------3--------3-----|
|--3--3-3-(3)-3---0-|-1--1-1-1-1-1--|-3--3--(3)--3-------1-----|------------3--------3-----|
|--2--2-2-(2)-2-2---|-0--0-0-0-0-0--|-0--0--(0)--0-------0-----|------------0--------0-----|
|--0--0-0-(0)-0-0---|-2--2-2-2---0--|-0--0--(0)--0--0h2--------|------------0--------------|
|-------------------|-3--3-3-3---3--|-2--2--(2)--2-------------|------------2--------------|
|-------------------|---------------|-3--3--(3)--3-------------|---3--------3-----3-----2--|


 
  Em                                       D         G
|-------------------|------------------------------|------------------|----------------------|
|-------------------|-------------------15---------|------------------|----------------------|
|-12s14-------------|-------14b16==(14)----14r(14)-|-12---------------|----------------------|
|-12s14-------------|------------------------------|------------------|----------------------|
|-------------------|------------------------------|------------------|----------------------|
|-------------------|------------------------------|------------------|----------------------|
|
|-------------------|------------------------------|--3---------------|-(3)------------------|
|-------------------|------------------------------|--3---------------|-(3)------------------|
|-------------------|------------------------------|--0---------------|-(0)------------------|
|--------x-7s9--x-7s|=9---x--7s======9------7------|--0---------------|-(0)------------------|
|--------x-5s7--x-5s|=7---x--5s======7------5------|--x---------------|----------------------|
|-------------------|------------------------------|--3---------------|-(3)------------------|
|
|-----0----0-0----0-|-0------0-------0---0--2------|--3--3----3-------|--3---3-3-(3)-3-3-0---|
|-----0----0-0----0-|-0------0-------0---0--3------|--3--3----3-----0-|--3---3-3-(3)-3-3-0---|
|-----0----0-0----0-|-0-0----0-------0---0--2------|--0--0----0-----0-|--0---0-0-(0)-0-0-0---|
|-----2--x-0-2--x-0-|-2-2-x--0-------2---2--0------|--0--0----0-0h2---|--0---0-0-(0)-0-0-----|
|-----2--x-0-2--x-0-|-2-2-x--0-------2---2---------|--2--2----2-------|--2---2-2-(2)-2-2-----|
|-----0--x-0-0--x-0-|-0---x--0-------0---0---------|--3--3--3-3-------|--3---3-3-(3)-3-3-----|


 

  D                  C               G
|------------------|---------------|----------|--------x-x-x-x-x-x-x-x-||
|------------------|---------------|----------|------------------------||
|------------------|---------------|----------|------------------------||
|------------------|---------------|----------|------------------------||
|------------------|---------------|----------|------------------------||
|------------------|---------------|----------|------------------------||
|
|-2----------------|-0-------------|-3--------|-(3)--------------------||
|-3----------------|-1-------------|-3--------|-(3)--------------------||
|-2----------------|-0-------------|-0--------|-(0)--------------------||
|-0----------------|-2-------------|-0--------|-(0)--------------------||
|------------------|-3-------------|-x--------|------------------------||
|------------------|---------------|-3--------|-(3)--------------------||
|
|-2--2-------2-2---|-0--0-0-0------|-3--------|-(3)--------------------||
|-3--3-------3-3-1-|-1--1-1-1------|-3--------|-(3)--------------------||
|-2--2-2-(2)-2-2-0-|-0--0-0-0-0-0--|-0--------|-(0)--------------------||
|-0--0-0-(0)-0-0-0-|-2--2-2-2---0--|-0--------|-(0)--------------------||
|------------------|-3--3-3-3------|-2--------|-(2)--------------------||
|------------------|---------------|-3--------|-(3)--------------------||


 2nd Verse
  G                                     C
  Gtr II
|----3---(3)-3-3-3-|-3--3---(3)-3-3---|----0---(0)-0-0---|--------------------|
|----3---(3)-3-3-3-|-3--3---(3)-3-3-1-|----1---(1)-1-1-1-|-1------------------|
|----0---(0)-0-0-0-|-0--0---(0)-0-0-0-|----0---(0)-0-0---|-0------------------|
|----0---(0)-0-0-0-|-0--0---(0)-0-0---|-2--2---(2)-2-2---|-2------------------|
|----2---(2)-2-2-2-|-2--2---(2)-2-2---|-3--3---(3)-3-3---|-3--2-3--2--0-0h2-0-|
|-3--3---(3)-3-3-3-|-3--3---(3)-3-3---|------------------|--------------------|
|
| Gtr I
|----3-------------|----3-------------|----0-------------|----0---------------|
|----3---------3---|----3---------3---|-1--1---------1---|----1-----------0---|
|--------------0---|--------------0---|-0------------0---|----------------0---|
|------------------|------------------|-2----------------|--------------------|
|------------------|------------------|-3----3-(3)-3---3-|-3----3-(3)-3-----0-|
|-3----3-(3)-3---3-|-3----3-(3)-3-----|------------------|--------------------|


  D                          C        G
|Guitar II
|----2---(2)-2-2-2-|-2-2-2---0--0---|-3--3---(3)----------|--------3---------(3)--3--3---3--|
|----3---(3)-3-3-3-|-3-3-3-1-1--1---|-3--3---(3)----------|--------3---------(3)--3--3---3--|
|----2---(2)-2-2-2-|-2-2-2-0-0--0---|-0--0---(0)--------0-|-(0)----0---------(0)--0--0---0--|
|-0--0---(0)-0-0-0-|-0-0-0---2--2-0-|-0--0---(0)---0h2----|--------0---------(0)--0--0---0--|
|------------------|---------3--3-0-|-2--2---(2)----------|--------2---------(2)--2--2---2--|
|------------------|----------------|-3--3---(3)----------|--------3---------(3)--3--3---3--|
|
| Guitar I
|----2---------2---|-----2----------|----3----------------|--------3------------------------|
|----3---------3---|-----3------1---|----3---------3------|--------3-----------------3------|
|------------------|------------0---|--------------0------|--------------------------0------|
|-0----0-(0)-0---0-|-0-----0-2----0-|---------------------|---------------------------------|
|------------------|---------3------|---------------------|---------------------------------|
|------------------|----------------|-3----3-(3)-3------3-|--3--------3------(3)--3------3--|
| 
|Guitar III
|------------------|----------------|---------------------|----------------------15---------|
|------------------|----------------|------------------12-|-----13---15b17==(15)----15r(15)-|
|------------------|----------------|---------------------|---------------------------------|
|------------------|----------------|---------------------|---------------------------------|
|------------------|----------------|---------------------|---------------------------------|
|------------------|----------------|---------------------|---------------------------------|



                                     C
|-----3---(3)-3---3-|-3--3---(3)-3---0-|-(0)--0-----------0-|-0------------------|
|-----0---(0)-0---0-|-0--0---(0)-0---1-|-(1)--1-----------1-|-1------------------|
|-----0---(0)-0---0-|-0--0---(0)-0---0-|-(0)--0-------0---0-|-0------------------|
|-----0---(0)-0---0-|-0--0---(0)-0---2-|-(2)--2-0--2------2-|-2--x-3p=2--0-0h2-0-|
|-----2---(2)-2---2-|-2--2---(2)-2---3-|-(3)--3-----------3-|-3------------------|
|--3--3---(3)-3-3-3-|-3--3---(3)-3-----|--------------------|--------------------|
|
|
|-----3-------------|----3-------------|------0-------------|----0---------------|
|-----3---------3---|----3---------3---|--1---1---------1---|----1-----------1---|
|---------------0---|--------------0---|--0-------------0---|----------------0---|
|-------------------|------------------|--2-----------------|--------------------|
|-------------------|------------------|--3-----3-(3)-3---3-|-3----3-(3)-3-----0-|
|--3----3-(3)-3---3-|-3----3-(3)-3-----|--------------------|--------------------|
|
|-15----------------|------------------|--------------------|--------------------|
|-15----------------|------------------|--------------------|--------------------|
|-------------------|------------------|--------------------|--------------------|
|-------------------|------------------|--------------------|--------------------|
|-------------------|------------------|--------------------|--------------------|
|-------------------|------------------|--------------------|--------------------|



  D   DsDs4                   C
|-----3--2--(2)-2---2-|-(2)-2-2---0--0--|
|-----3--3--(3)-3---3-|-(3)-3-3-1-1--1--|
|-----2--2--(2)-2---2-|-(2)-2-2-0-0--0--|
|-0---0--0--(0)-0---0-|-(0)-0-0---2--2--|
|---------------------|-----------3--3--|
|---------------------|-----------------|
|
|---2-----------2-----|--2----0---0-----|
|---3-----------3-----|--3----1---1-----|
|---2-----------------|-------0---0-----|
|-----0-(0)--0----0-0-|-----0-2---2-----|
|---------------------|-------3---3-----|
|---------------------|--------------3--|
|
|---------------------|-----------------|
|---------------------|-----------------|
|---------------------|-----------------|
|---------------------|-----------------|
|---------------------|-----------------|
|---------------------|-----------------|


  G
|-3---3----(3)---------|------3-----(3)-3-----------||
|-3---3----(3)---------|------3-----(3)-3-----------||
|-0---0----(0)-------0-|-(0)--0-----(0)-0-----------||
|-0---0----(0)---0h2---|------0-----(0)-0-----------||
|-2---2----(2)---------|------2-----(2)-2-----------||
|-3---3----(3)---------|------3-----(3)-3----2------||
|
|-3--(3)---------------|----------------------------||
|-3--(3)-3--3--3-------|------3---3--3--------------||
|-0--(0)-0--0--0-------|------0---0--0--------------||
|-0--(0)-0--0--0-------|------0---0--0--------------||
|-x------x--x--x-------|------x---x--x--------------||
|-3--(3)-3--3--3-3-----|--3---3---3--3-------2------||
|
|----------------------|----------------------------||
|----------------------|----------------------------||
|----------------------|--------3p2-----2b3r(2)-0---||
|----------------------|----------------------------||
|----------------------|----------------------------||
|----------------------|----------------------------||


 Chorus
  Em                           D  G
  Gtr III
|---------------|---------------|----------------|----------------------------|
|---------------|---------------|----------------|----------------------------|
|-2--0----------|---------------|-------------14-|--------14-----14b16r(14)---|
|---------------|---------------|----------------|----------------------------|
|---------------|---------------|----------------|----------------------------|
|---------------|---------------|----------------|----------------------------|
|
| Gtr IV
|---------------|---------------|-3--------------|-(3)------------------------|
|---------------|---------------|-3--------------|-(3)------------------------|
|---------------|---------------|-0--------------|-(0)------------------------|
|----x-7s9--x-7s|=9---x-7s9--7--|-0--------------|-(0)------------------------|
|----x-5s7--x-5s|=7---x-5s7--5--|-x--------------|----------------------------|
|---------------|---------------|-3--------------|-(3)------------------------|
|
| Gtrs I, II
|------0-0----0-|-0-----0-0--2--|-3--3--3-3-3--3-|--3---3--3-(3)--3------3--0-|
|------0-0----0-|-0-0---0-0--3--|-3--3--3-3-3--3-|--3---3--3-(3)--3------3--0-|
|------0-0----0-|-0-0---0-0--2--|-0--0--0-0-0--0-|--0---0--0-(0)--0------0--0-|
|-2--x-0-2--x-0-|-2-2-x-0-2--0--|-0--0--0-0-0--0-|--0---0--0-(0)--0------0----|
|-2--x-0-2--x-0-|-2---x-0-2-----|-2--2--2-2-2--2-|--2---2--2-(2)--2------2----|
|-0--x-0-0--x-0-|-0---x-0-0-----|-3--3--3-3-3--3-|--3---3--3-(3)--3------3----|


  D                   C               G
|-------------------|---------------|-------------------|----------------|
|-15----------------|---------------|-------------------|----------------|
|-14----------------|---------------|-------------------|----------------|
|-------------------|---------------|-------------------|----------------|
|-------------------|---------------|-------------------|----------------|
|-------------------|---------------|-------------------|----------------|
|
|--2----------------|-0-------------|-3-----------------|-(3)------------|
|--3----------------|-1-------------|-3-----------------|-(3)------------|
|--2----------------|-0-------------|-0-----------------|-(0)------------|
|--0----------------|-2-------------|-0-----------------|-(0)------------|
|-------------------|-3-------------|-x-----------------|----------------|
|-------------------|---------------|-3-----------------|-(3)------------|
|
|--2--2-2-(2)-3---1-|-0--0-0-0-0-0--|-3--3--(3)-3-------|------3----3----|
|--3--3-3-(3)-3---0-|-1--1-1-1-1-1--|-3--3--(3)-3-----1-|------3----3----|
|--2--2-2-(2)-2-2---|-0--0-0-0-0-0--|-0--0--(0)-0-----0-|------0----0----|
|--0--0-0-(0)-0-0---|-2--2-2-2---0--|-0--0--(0)-0-0h2---|------0---------|
|-------------------|-3--3-3-3---3--|-2--2--(2)-2-------|------2---------|
|-------------------|---------------|-3--3--(3)-3-------|--3---3--3---2--|


  Em                                            D
|--------------------|--------------------------------|
|--------------------|--------15--------15------------|
|-------------14b16==|=(14)------14pb16-14r(14)-12----|
|--------------------|-----------------------------14-|
|--------------------|--------------------------------|
|--------------------|--------------------------------|
|
|--------------------|--------------------------------|
|--------------------|--------------------------------|
|--------------------|--------------------------------|
|----x-7s9--x--7s====|===9-----x--7s=====9-------7----|
|----x-5s7--x--5s====|===7-----x--5s=====7-------5----|
|--------------------|--------------------------------|
|
|-0----0-0-----0-----|---0--------0------0---0---2----|
|-0----0-0-----0-----|---0--------0------0---0---3----|
|-0----0-0-----0-----|---0--0-----0------0---0---2----|
|-2--x-0-2--x--0-----|---2--2--x--0------2---2---0----|
|-2--x-0-2--x--0-----|---2--2--x--0------2---2--------|
|-0--x-0-0--x--0-----|---0-----x--0------0---0--------|


     G                                         D                  C
|----------------------|----------------------|------------------|---------------|
|----------------------|----------------------|------------------|---------------|
|-12h14-----12---------|----------------------|------------------|---------------|
|----------------------|----------------------|------------------|---------------|
|----------------------|----------------------|------------------|---------------|
|----------------------|----------------------|------------------|---------------|
|
|-----3----------------|-(3)------------------|-2----------------|-0-------------|
|-----3----------------|-(3)------------------|-3----------------|-1-------------|
|-----0----------------|-(0)------------------|-2----------------|-0-------------|
|-----0----------------|-(0)------------------|-0----------------|-2-------------|
|-----x----------------|----------------------|------------------|-3-------------|
|-----3----------------|-(3)------------------|------------------|---------------|
|
|-----3--3-----3-------|--3---3-3-(3)-3-3-0---|-2--2-------2-2---|-0--0-0-0------|
|-----3--3-----3-----0-|--3---3-3-(3)-3-3-0---|-3--3-------3-3-1-|-1--1-1-1------|
|-----0--0-----0-----0-|--0---0-0-(0)-0-0-0---|-2--2-2-(2)-2-2-0-|-0--0-0-0-0-0--|
|-----0--0-----0-0h2---|--0---0-0-(0)-0-0-----|-0--0-0-(0)-0-0-0-|-2--2-2-2---0--|
|-----2--2-----2-------|--2---2-2-(2)-2-2-----|------------------|-3--3-3-3------|
|-----3--3---3-3-------|--3---3-3-(3)-3-3-----|------------------|---------------|




                      Guitar Solo
                       Gtr V
|--------------------|-----------------------||
|--------------------|-------------------0---||
|--------------------|-------------------0---||
|--------------------|-----------------5-----||
|--------------------|---------5-(5)-7-------||
|--------------------|-x-3-5s7---------------||
|
|--------------------|-----------------------||
|--------------------|-----------------------||
|--------------------|-----------------------||
|--------------------|-----------------------||
|--------------------|-----------------------||
|--------------------|-----------------------||
|
|-3--3-3-(3)---------|-------3-3-(3)-3-3-3---||
|-3--3-3-(3)-0-------|-------3-3-(3)-3-3-3---||
|-0--0-0-(0)-0-----0-|-------0-0-(0)-0-0-0---||
|-0--0-0-(0)---0h2---|-------0-0-(0)-0-0-0---||
|-2--2-2-(2)---------|-------2-2-(2)-2-2-2---||
|-3--3-3-(3)---------|-3-----3-3-(3)-3-3-3---||


  G
|------------------|---------------------|
|-7-8-7------------|-7h8p7-------------0-|
|-------9-(9)-7----|-------9-(9)-7-(7)---|
|----------------9-|---------------------|
|------------------|---------------------|
|------------------|---------------------|
|
| Gtrs I, II
|-3---3-3-(3)-3--3-|-3---3-3--3--3--3----|
|-3---3-3-(3)-3--3-|-3---3-3--3--3--3----|
|-0---0-0-(0)-0--0-|-0---0-0--0--0--0----|
|-0---0-0-(0)-0--0-|-0---0-0--0--0--0----|
|-2---2-2-(2)-2--2-|-2---2-2--2--2--2--0-|
|-3---3-3-(3)-3--3-|-3---3-3--3--3--3----|


  C
|------------------------------|--------------------------|
|-12h13p12---------------------|-15---------------------0-|
|----------14-(14)-12-14b16====|====14r(14)-12-(12)-------|
|------------------------------|--------------------------|
|------------------------------|--------------------------|
|------------------------------|--------------------------|
|
|--0-----0--0--(0)--0--0-----0-|--0------0---0--(0)-0-0---|
|--1-----1--1--(1)--1--1-----1-|--1------1---1--(1)-1-1---|
|--0-----0--0--(0)--0--0-----0-|--0------0---0--(0)-0-0---|
|--2-----2--2--(2)--2--2-----2-|--2------2---2--(2)-2-2---|
|--3-----3--3--(3)--3--3-----3-|--3------3---3--(3)-3-3---|
|------------------------------|--------------------------|


  D                                            C
                       ~~
|-14h15-14--------------------|-15--------------------------------|
|----------15b17-(15)-15---12-|----15---15-----(15)---------------|
|-----------------------------|---------14b16==(14)r(14)-12-14-12-|
|-----------------------------|-----------------------------------|
|-----------------------------|-----------------------------------|
|-----------------------------|-----------------------------------|
|
|--2-----2--3-----(3)--2-2--2-|--2----2--2-------0--------0-------|
|--3-----3--3-----(3)--3-3--3-|--3----3--3-------1--------1-------|
|--2-----2--2-----(2)--2-2--2-|--2----2--2-------0--------0-------|
|--0-----0--0-----(0)--0-0--0-|--0----0--0-------2--------2-------|
|-----------------------------|------------------3--------3-----0-|
|-----------------------------|-----------------------------------|


  G
                   ~~
|-----------------------------------|--------------------------|
|-----------------------------------|------0-3-----3-----------|
|-(12)b12.5-------------------------|------0-2-----2b4r(2)p0---|
|-----------12-14-12----------------|--------------------------|
|----------------------14--12S10-12-|-10----------------------|
|-----------------------------------|--------------------------|
|
|---3--------------3-3-(3)--3--3--3-|--3---3-3-(3)-3----3------|
|---3--------------3-3-(3)--3--3--3-|--3---3-3-(3)-3----3------|
|---0--------------0-0-(0)--0--0--0-|--0---0-0-(0)-0----0------|
|---0--------------0-0-(0)--0--0--0-|--0---0-0-(0)-0----0------|
|---2--------------2-2-(2)--2--2--2-|--2---2-2-(2)-2----2------|
|---3--------------3-3-(3)--3--3--3-|--3---3-3-(3)-3----3------|


 3rd Verse
  G                         C                       D                  C
                >
|------------|------------|----------|------------|-----------|----------------|
|------------|------------|----------|------------|-----------|----------------|
|-(0)--------|-(0)--------|----------|------------|-----------|----------------|
|------------|------------|----------|------------|-----------|----------------|
|------------|------------|----------|------------|-----------|----------------|
|------------|------------|----------|------------|-----------|----------------|
|
|--3---------|-(3)--------|-0--------|-(0)--------|-^2--------|-(2)----^0------|
|--3---------|-(3)--------|-1--------|-(1)--------|-^3--------|-(3)----^1------|
|--0---------|-(0)--------|-0--------|-(0)--------|-^2--------|-(2)----^0--0---|
|--0---------|-(0)--------|-2--------|-(2)--------|-^0--------|-(0)----^2------|
|--2---------|-(2)--------|-3--------|-(3)--------|-----------|--------^3------|
|--3---------|-(3)--------|----------|------------|-----------|----------------|


  G
  Gtr III
                                                           ~~
|-----------------|------15-----------------------------|-------------------|
|----------15-----|---------15------------------12------|-------------------|
|----------14b16==|=(14)-------14pb16-(14)r(14)-12h==14-|-12----------------|
|-----------------|-------------------------------------|-------------------|
|-----------------|-------------------------------------|-------------------|
|-----------------|-------------------------------------|-------------------|
|
| Gtr II
|----3------------|---3---------------------------------|-----3---(3)-3-3-3-|
|----0------------|---0---------------------------------|-----0---(0)-0-0-0-|
|----0------------|---0-------------------------------0-|-----0---(0)-0-0-0-|
|----0------------|---0--------------------------0h2----|-----0---(0)-0-0-0-|
|----x------------|---x---------------------------------|-----x---(x)-x-x-x-|
|-3--3------------|---3---------------------------------|--3--3---(3)-3-3-3-|
|
| Gtr I
|----3------------|---3---------------------------------|-----3-------------|
|----0------------|---0---------------------------------|-----3---------3---|
|----0------------|---0-------------------------------0-|---------------0---|
|----0------------|---0--------------------------0h2----|-------------------|
|----x------------|---x---------------------------------|-------------------|
|-3--3------------|---3---------------------------------|--3----3-(3)-3---3-|


                        C
|------------------|------------------|------------------|
|------------------|------------------|------------------|
|------------------|------------------|------------------|
|------------------|------------------|------------------|
|------------------|------------------|------------------|
|------------------|------------------|------------------|
|
|-3--3---(3)-3-3---|----0----0--------|------------------|
|-0--0---(0)-0-0-1-|----1----1--------|------------------|
|-0--0---(0)-0-0-0-|----0----0--------|------------0-----|
|-0--0---(0)-0-0---|-2--2----2----3p==|=2----0h=2----2-0-|
|-x--x---(x)-x-x---|-3--3----3--------|------------------|
|-3--3---(3)-3-3---|------------------|------------------|
|
|----3-------------|----0-------------|----0-------------|
|----3---------3---|-1--1---------1---|----1---------0---|
|--------------0---|-0------------0---|--------------0---|
|------------------|-2----------------|------------------|
|------------------|-3----3-(3)-3---3-|-3----3-(3)-3---0-|
|-3----3-(3)-3-----|------------------|------------------|


  D                          C        G
  Gtr II
|----2---(2)-2-2-2-|-2-2-2---0--0---|-3--3---(3)---------|------3---(3)-3-3-3-|
|----3---(3)-3-3-3-|-3-3-3-1-1--1---|-3--3---(3)---------|------3---(3)-3-3-3-|
|----2---(2)-2-2-2-|-2-2-2-0-0--0---|-0--0---(0)-------0-|-(0)--0---(0)-0-0-0-|
|-0--0---(0)-0-0-0-|-0-0-0---2--2-0-|-0--0---(0)---0h2---|------0---(0)-0-0-0-|
|------------------|---------3--3-0-|-2--2---(2)---------|------2---(2)-2-2-2-|
|------------------|----------------|-3--3---(3)---------|------3---(3)-3-3-3-|
|
| Gtr I
|----2---------2---|-----2----------|----3---------------|------3-------------|
|----3---------3---|-----3------1---|----3---------3-----|------3---------3---|
|------------------|------------0---|--------------0-----|----------------0---|
|-0----0-(0)-0---0-|-0-----0-2----0-|--------------------|--------------------|
|------------------|---------3------|--------------------|--------------------|
|------------------|----------------|-3----3-(3)-3-----3-|--3-----3-(3)-3---3-|


                                    C
|----3---(3)-3---3-|-3--3---(3)-3---0-|-(0)--0-----------0-|-0------------------|
|----0---(0)-0---0-|-0--0---(0)-0---1-|-(1)--1-----------1-|-1------------------|
|----0---(0)-0---0-|-0--0---(0)-0---0-|-(0)--0-------0---0-|-0------------------|
|----0---(0)-0---0-|-0--0---(0)-0---2-|-(2)--2-0--2------2-|-2--x-3p=2--0-0h2-0-|
|----2---(2)-2---2-|-2--2---(2)-2---3-|-(3)--3-----------3-|-3------------------|
|-3--3---(3)-3-3-3-|-3--3---(3)-3-----|--------------------|--------------------|
|
|----3-------------|----3-------------|------0-------------|----0---------------|
|----3---------3---|----3---------3---|--1---1---------1---|----1-----------1---|
|--------------0---|--------------0---|--0-------------0---|----------------0---|
|------------------|------------------|--2-----------------|--------------------|
|------------------|------------------|--3-----3-(3)-3---3-|-3----3-(3)-3-----0-|
|-3----3-(3)-3---3-|-3----3-(3)-3-----|--------------------|--------------------|




 Chorus
  D                             C
  Gtr III
|-------------------|-----------------|
|-------------------|-----------------|
|-------------------|-----------------|
|-------------------|-----------------|
|-------------------|-----------------|
|-------------------|-----------------|
|
| Gtr II
|-----2-2-(2)-2---2-|-(2)-2-2---0--0--|
|-----3-3-(3)-3---3-|-(3)-3-3-1-1--1--|
|-----2-2-(2)-2---2-|-(2)-2-2-0-0--0--|
|-0---0-0-(0)-0---0-|-(0)-0-0---2--2--|
|-------------------|-----------3--3--|
|-------------------|-----------------|
|
| Gtr I
|-----2---------2---|-------2---0--0--|
|-----3---------3---|-------3---1--1--|
|-----2-------------|-----------0--0--|
|---0---0-(0)-0---0-|--0------0-2--2--|
|-------------------|-----------3--3--|
|-------------------|-----------------|


  G5
|-------------------|-----------------15-------------||
|-------------------|-----15b17==(15)----15r=(15)----||
|-------------------|--------------------------------||
|-------------------|--------------------------------||
|-------------------|--------------------------------||
|-------------------|--------------------------------||
|
|-3--3--(3)---------|--------------3-----(3)---3-----||
|-3--3--(3)---------|--------------3-----(3)---3-----||
|-0--0--(0)-------0-|-(0)----------0-----(0)---0-----||
|-0--0--(0)---0h2---|--------------0-----(0)---0-----||
|-2--2--(2)---------|--------------2-----(2)---2-----||
|-3--3--(3)---------|--------------3-----(3)---3--2--||
|
|----3--(3)---------|--------------------------------||
|----3--(3)-3-3---3-|--------------3---3--3----------||
|----0--(0)-0-0---0-|--------------0---0--0----------||
|----0--(0)-0-0---0-|--------------0---0--0----------||
|----x------x-x---x-|--------------x---x--x----------||
|-3--3--(3)-3-3---3-|--3-----------3---3--3-------2--||


  Em                              D
|-----------------|------------------|
|-----------------|---12---13p12-----|
|-(0)-------------|---12---12--------|
|-----------------|------------------|
|-----------------|------------------|
|-----------------|------------------|
|
| Gtr IV
|-----------------|------------------|
|-----------------|------------------|
|-----------------|------------------|
|------x-7s9--x-7s|=9----x--7s=9--7--|
|------x-5s7--x-5s|=7----x--5s=7--5--|
|-----------------|------------------|
|
| Gtrs I, II
|--------0-0----0-|-0-------0--0--2--|
|--------0-0----0-|-0--0----0--0--3--|
|--------0-0----0-|-0--0----0--0--2--|
|--2---x-0-2--x-0-|-2--2-x--0--2--0--|
|--2---x-0-2--x-0-|-2----x--0--2-----|
|--0---x-0-0--x-0-|-0----x--0--0-----|


  G
|---------------|-----------------------------|
|---------------|--------12-----12pb14r(12)---|
|---------------|-----------------------------|
|---------------|-----------------------------|
|---------------|-----------------------------|
|---------------|-----------------------------|
|
|-3-------------|-(3)-------------------------|
|-3-------------|-(3)-------------------------|
|-0-------------|-(0)-------------------------|
|-0-------------|-(0)-------------------------|
|-x-------------|-----------------------------|
|-3-------------|-(3)-------------------------|
|
|-3--3--3-3-3-3-|--3---3--3-(3)--3-------3--0-|
|-3--3--3-3-3-3-|--3---3--3-(3)--3-------3--0-|
|-0--0--0-0-0-0-|--0---0--0-(0)--0-------0--0-|
|-0--0--0-0-0-0-|--0---0--0-(0)--0-------0----|
|-2--2--2-2-2-2-|--2---2--2-(2)--2-------2----|
|-3--3--3-3-3-3-|--3---3--3-(3)--3-------3----|


  D                   C               G
|-------------------|---------------|-------------------|----------------|
|-------------------|---------------|-------------------|----------------|
|-12----------------|---------------|-------------------|----------------|
|-------------------|---------------|-------------------|----------------|
|-------------------|---------------|-------------------|----------------|
|-------------------|---------------|-------------------|----------------|
|
|--2----------------|-0-------------|-3-----------------|-(3)------------|
|--3----------------|-1-------------|-3-----------------|-(3)------------|
|--2----------------|-0-------------|-0-----------------|-(0)------------|
|--0----------------|-2-------------|-0-----------------|-(0)------------|
|-------------------|-3-------------|-x-----------------|----------------|
|-------------------|---------------|-3-----------------|-(3)------------|
|
|--2--2-2-(2)-3---1-|-0--0-0-0-0-0--|-3--3--(3)-3-------|------3----3----|
|--3--3-3-(3)-3---0-|-1--1-1-1-1-1--|-3--3--(3)-3-----1-|------3----3----|
|--2--2-2-(2)-2-2---|-0--0-0-0-0-0--|-0--0--(0)-0-----0-|------0----0----|
|--0--0-0-(0)-0-0---|-2--2-2-2---0--|-0--0--(0)-0-0h2---|------0---------|
|-------------------|-3--3-3-3---3--|-2--2--(2)-2-------|------2---------|
|-------------------|---------------|-3--3--(3)-3-------|--3---3--3---2--|


  Em                                    D
|--------------------|------------------------|
|-15----12-(12)------|------------------------|
|-14----12-(12)------|-----------14pb16r(14)--|
|--------------------|------------------------|
|--------------------|------------------------|
|--------------------|------------------------|
|
|--------------------|------------------------|
|--------------------|------------------------|
|--------------------|------------------------|
|-----x--7s==9---x-7s|=9---x-7s9----------7---|
|-----x--5s==7---x-5s|=7---x-5s7----------5---|
|--------------------|------------------------|
|
|--0-----0---0-----0-|-0-----0-0--0-------2---|
|--0-----0---0-----0-|-0-----0-0--0-------3---|
|--0-----0---0-----0-|-0-0---0-0--0-------2---|
|--2--x--0---2---x-0-|-2-2-x-0-2--2-------0---|
|--2--x--0---2---x-0-|-2-2-x-0-2--2-----------|
|--0--x--0---0---x-0-|-0---x-0-0--0-----------|


  G
|-----------------------|--------------------|
|-12----15-(15)---------|--------------------|
|-14----16-(16)---------|--------------------|
|-----------------------|--------------------|
|-----------------------|--------------------|
|-----------------------|--------------------|
|
|--3--------------------|-(3)----------------|
|--3--------------------|-(3)----------------|
|--0--------------------|-(0)----------------|
|--0--------------------|-(0)----------------|
|--x--------------------|--------------------|
|--3--------------------|-(3)----------------|
|
|--3--3---------3-------|--3---3-3-(3)-3-3-0-|
|--3--3---------3-----0-|--3---3-3-(3)-3-3-0-|
|--0--0---------0-----0-|--0---0-0-(0)-0-0-0-|
|--0--0---------0-0h2---|--0---0-0-(0)-0-0---|
|--2--2---------2-------|--2---2-2-(2)-2-2---|
|--3--3------3--3-------|--3---3-3-(3)-3-3---|


  D                  C
|------------------|-----------------------|
|------------------|------------15b16r=====|
|------------------|------------14----(14)-|
|------------------|-----------------------|
|------------------|-----------------------|
|------------------|-----------------------|
|
|-2----------------|-0---------------------|
|-3----------------|-1---------------------|
|-2----------------|-0---------------------|
|-0----------------|-2---------------------|
|------------------|-3---------------------|
|------------------|-----------------------|
|
|-2--2-------2-2---|-0--0-0-0--------------|
|-3--3-------3-3-1-|-1--1-1-1--------------|
|-2--2-2-(2)-2-2-0-|-0--0-0-0-0--0---------|
|-0--0-0-(0)-0-0-0-|-2--2-2-2----0---------|
|------------------|-3--3-3-3--------------|
|------------------|-----------------------|


  G
|-------------------------------|------------------------|
|-15pb17------------------------|------------------------|
|-14--------12-(12)-12----------|------------------------|
|----------------------12h14-12-|-(12)---12-12-(12)------|
|-------------------------------|------------------------|
|-------------------------------|------------------------|
|
|--3----------------------------|--(3)-------------------|
|--3----------------------------|--(3)-------------------|
|--0----------------------------|--(0)-------------------|
|--0----------------------------|--(0)-------------------|
|--x----------------------------|------------------------|
|--3----------------------------|--(3)-------------------|
|
|--3------3--3--(3)--3--------3-|---3--3--3--3--(3)-3-3--|
|--3------3--3--(3)--3--------3-|---3--3--3--3--(3)-3-3--|
|--0------0--0--(0)--0-----0--0-|---0--0--0--0--(0)-0-0--|
|--0------0--0--(0)--0-----2--0-|---0--0--0--0--(0)-0-0--|
|--2------2--2--(2)--2----------|---2--2--2--2--(2)-2-2--|
|--3------3--3--(3)--3----------|---3--3--3--3--(3)-3-3--|


  D                C                G
|----------------|----------------|--------------*|
|----------------|----------------|--------------*|
|----------------|----------------|-----------*|
|----------------|----------------|--------------*|
|----------------|----------------|--------------*|
|----------------|----------------|--------------*|
|
|-2--------------|-0--------------|--3-----------*|
|-3--------------|-1--------------|--3-----------*|
|-2--------------|-0--------------|--0-----------*|
|-0--------------|-2--------------|--0-----------*|
|----------------|-3--------------|--x-----------*|
|----------------|----------------|--3-----------*|
|
|-2--2-2-2-2-2-2-|-0---0-(0)-0--0-|-^3-----------*|
|-3--3-3-3-3-3-3-|-1---1-(1)-1--0-|-^3-----------*|
|-2--2-2-2-2-2-2-|-0---0-(0)-0--0-|-^0-----------*|
|-0--0-0-0-0-0-0-|-2---2-(2)-2----|-^0-----------*|
|----------------|-3---3-(3)-3----|-^2-----------*|
|----------------|----------------|-^3-----------*|







Living my life in the slow hell
Different girl every night at the hotel
I haven’t seen the sunshine in three damn days
Filling up on cocaine and whisky
Wish I had a good girl who misses me
Thought I wonder if I’ll ever change my ways

I put your pictures away, sat down and cried today
I can’t look at you when I’m lying next to her 
I put your pictures away, sat down and cried today
I can’t look at you when I’m lying next to her 

I called you last night in the hotel
Everyone knows that they won’t tell
But the half hearted smile tells me there is something just ain’t right
I have been waiting on you for a long time
Filling up on hard and cheap wine
I ain’t heard from you  in three damn nights

I put your pictures away
I wonder where you have been
I can’t look at you when I’m lying next to him
I put your pictures away
I wonder where you have been
I can’t look at you when I’m lying next to him

I saw you yesterday with an old friend
It was the same old saying “how’ve you been?”
Since you have been gone
I world have been dark and grey
You reminded me of brighter days
Hope you are coming home to stay
I was heading for search
I was hoping to take you away
I thought about you for a long time
Can’t seem to get you out of my mind
I can’t under why we’re living life this way

I found your pictures today
I swear I’ll change my ways
I just called to say I want you come back home
I found your pictures today
I swear I’ll change my ways
I just called to say I want you come back home



Enjoy.


Текст, аккорды и табулатура для песни "Picture", исполняет "Kid Rock".
Используемые в песне аккорды можно найти в разделе Как брать аккорды. Аккорды для шестиструнной гитары. Другие песни можно найти на нашем сайте, воспользовавшись алфавитным указателем вверху страницы.


Слушать онлайн Picture


Sheryl CrowPicture на Яндекс.Музыке


 
Ошибка в тексте? Выделите ошибку и нажмите Ctrl+Enter