This is the whole song except the solo.  It was hard to tab too.
e-|--------------0-----------| Play 7x before first fill 
b-|--------------------------| riff
g-|--------------------------|	
d-|2-2-2--2-2-2----2-2-2-2-2-|
a-|2-2-2--2-2-0----2-2-2-2-2-|
e-|0-0-0--0-3-0----0-0-0-3-0-|

e-|5-h4-h3---------------------------------------| FILL RIFF
b-|--------5—5-h4-h3-----------------------------|
g-|-------------------4---4-h3-h2----------------| 
d-|-------------------------------5--5-h4-h3-0---|
a-|----------------------------------------------|
e-|----------------------------------------------|

e-|-------------0------------| Play this 3x
b-|--------------------------|
g-|--------------------------|	
d-|2-2-2--2-2-2—---2-2-2-2-2-|	
a-|2-2-2--2-2-2—---2-2-2-2-2-|
e-|0-0-0--0-3-0----0-0-0-3-0-|

Then play e-|-6-----------------| (hold it for 2 beats)

This is the chorus too.
e-|-------------0-----------|
b-|-------------------------|
g-|-------------------------|
d-|2-2-2--2-2-2—--2-2-2-2-2-|
a-|2-2-2--2-2-2—--2-2-2-2-2-|
e-|0-0-0--0-3-0---0-0-0-3-0-|


Текст, аккорды и табулатура для песни "Forever", исполняет "Kid Rock".
Используемые в песне аккорды можно найти в разделе Как брать аккорды. Аккорды для шестиструнной гитары. Другие песни можно найти на нашем сайте, воспользовавшись алфавитным указателем вверху страницы.


Слушать онлайн Forever


Kid RockForever на Яндекс.Музыке


 
Ошибка в тексте? Выделите ошибку и нажмите Ctrl+Enter