Kid Rock, Abortion.
Tabbed by stefan,[email protected]
  
ABORTION

Intro:
-|--------------------------------------------------------------------------------------------|-
-|--------------------------------------------------------------------------------------------|-
-|-7--7-10-10h12b13-12h13p107-7h10-12-10-7-10-7h10-12b13-12b13-11r109-9-9h10p9-5-5/7--|-
-|--------------------------------------------------------------------------------------------|-
-|--------------------------------------------------------------------------------------------|-
-|--------------------------------------------------------------------------------------------|-

Wstawek:
-|--------------------------------------------------------------------------------------------|-
-|--------------------------------------------------------------------------------------------|-
-|-10-10p9-10p9-9-7-------------------------------------------------------------------------|-
-|--------------------------------------------------------------------------------------------|-
-|--------------------------------------------------------------------------------------------|-
-|--------------------------------------------------------------------------------------------|-

Środek:
-|----------------------------------------------------------------------------------------------|-
-|----------------------------------------------------------------------------------------------|-
-|-12b13-12b13-12b13-12b13--10b11-7-7-10-10h12-12-12b13-10-13p12-10-12--12/13-12-10-12/13-10--7-|-
-|----------------------------------------------------------------------------------------------|-
-|----------------------------------------------------------------------------------------------|-
-|----------------------------------------------------------------------------------------------|-

-|-------------13----13-15-16b17-15-13--------------------------------------------------------|-
-|-13-15-13h15----15-------------------15-13--------------------------------------------------|-
-|-------------------------------------------13h15p1310-10-12/1412-11b13-9-9h10p9-5/7----|-
-|--------------------------------------------------------------------------------------------|-
-|--------------------------------------------------------------------------------------------|-
-|--------------------------------------------------------------------------------------------|-

Wstawek2:
-|------13-15h16p15~--------------------------------------------------------------------------|-
-|-13-15--------------------------------------------------------------------------------------|-
-|--------------------------------------------------------------------------------------------|-
-|-----------------------3---3--555---------------------------------------------------------|-
-|-------------------35---5------------------------------------------------------------------|-
-|--------------------------------------------------------------------------------------------|-

End:
-|------------------------------------------12/13-13-13-13p12-12108-8/10----}x2-------------|-
-|--------------------------------------------------------------------------------------------|-
-|--910-10-10-10p9-975-5/7-----}x2---------------------------------------------------------|-
-|--------------------------------------------------------------------------------------------|-
-|--------------------------------------------------------------------------------------------|-
-|--------------------------------------------------------------------------------------------|-

:: Ultimate Guitar Archive :: 
http://www.ultimate-guitar.com 





Текст, аккорды и табулатура для песни "Abortion", исполняет "Kid Rock".
Используемые в песне аккорды можно найти в разделе Как брать аккорды. Аккорды для шестиструнной гитары. Другие песни можно найти на нашем сайте, воспользовавшись алфавитным указателем вверху страницы.


Слушать онлайн Abortion


Kid RockAbortion на Яндекс.Музыке


 
Ошибка в тексте? Выделите ошибку и нажмите Ctrl+Enter