From the PEACEVILLE album "Tonight´s decision"

Guitar 1
Electric
Riff 1 (played four times with endings 1, 2, 3 and 4)
--------------------------------------|
--------------------------------------|
|-9-11-12-12-12-12-12----9-11-11-11-11-11-11-9-11-|
----------12--------------------------|
|-7-9---------------------------------------------|
--------------------------------------|





 1. & 3.  
---------------------------|
---------------------------|
---------------------------|
|-9-9-11-11-11-11-11-11-11-11-11-11-11-|
---------------------------|
---------------------------|





 2.
---------------------------|
---------------------------|
---------------------------|
|-9-9-11-11-11-11-11-11-11-11-11-11-11-|
|-----12-12-12-12-12-11-11-11-11-11-11-|
---------------------------|





 4.
---------------------------------------|
---------------------------------------|
---------------------------------------|
|-9-9-11-11-11-11-11-11-11-11-11-11-11-11-11-11-11-|
|-----12-12-12-12-12-11-11-11-11-11-11-11-11-11-11-|
---------------------------------------|




Clean
Riff 2
|-----3-------5-3--------------------------|
|-5~----3h5~------3-5-3~--5-6-3~-----------|
----------------------4-5-0h2~-|
-------------------------------|
-------------------------------|
-------------------------------|



Electric
Riff 3a (firstly, secondly and fourthly played)
------------------------------------------------------|
------------------------------------------------------|
|-0-0-0-0-0-0-0-0-----------------4-4-4-4-4-4-4-4-----------------|
|-2-2-2-2-2-2-2-2-5-5-5-5-5-5-5-5-4-4-4-4-4-4-4-4-5-5-5-5-5-5-5-5-|
|-2-2-2-2-2-2-2-2-5-5-5-5-5-5-5-5-2-2-2-2-2-2-2-2-5-5-5-5-5-5-5-5-|
|-0-0-0-0-0-0-0-0-3-3-3-3-3-3-3-3-----------------3-3-3-3-3-3-3-3-|




Riff 3b (thirdly played)
------------------------------------------------------|
------------------------------------------------------|
------4-4-4-4-4-4-4-4-9-9-9-9-9-9-9-9-2-2-2-2-2-4-4-4-|
|-2-2-2-2-2-2-2-2-0-0-0-0-0-0-0-0-9-9-9-9-9-9-9-9-2-2-2-2-2-4-4-4-|
|-2-2-2-2-2-2-2-2-2-2-2-2-2-2-2-2-7-7-7-7-7-7-7-7-0-0-0-0-0-2-2-2-|
|-0-0-0-0-0-0-0-0-------------------------------------------------|





Riff 4
--------------------------------7-6-5--------|
|-5~---7-8-7h8p7p5------7-8-7h8p7p5-7-5~--5-------8-8p5~-|
-------4~------------------------------------|
---------------------------------------------|
---------------------------------------------|
---------------------------------------------|



Guitar 2
Electric
Riff 1
------------------------------------------------------------|
------------------------------------------------------------|
------------------------------------------------------------|
|-------2-2-2-2-2-2-2-2-7-7-7-7-7-7-7-9-9-4-4-4-4-4-4-4-4-4-4-4-4-4-4-4-|
|-------2-2-2-2-2-2-2-2-5-5-5-5-5-5-5-7-7-4-4-4-4-4-4-4-4-4-4-4-4-4-4-4-|
|-------0-0-0-0-0-0-0-0-5-5-5-5-5-5-5-7-7-2-2-2-2-2-2-2-2-2-2-2-2-2-2-2-|



Clean
Riff 2
-----------------------|
|-5---------5----------------------|
|-5----4----5--2--2----2---4--5--2-|
|-7----5----7--4--3----3---0--0--3-|
|------7-------5--5----5---2--3--5-|
-----------------------|



Rhythm on riff 4 is riff 3a!

Riffs 3a and 3b are equal to guitar 1!


Текст, аккорды и табулатура для песни "Right Into The Bliss", исполняет "Katatonia".
Используемые в песне аккорды можно найти в разделе Как брать аккорды. Аккорды для шестиструнной гитары. Другие песни можно найти на нашем сайте, воспользовавшись алфавитным указателем вверху страницы.


 
Ошибка в тексте? Выделите ошибку и нажмите Ctrl+Enter