Katatonia	
song      -  for my demons
album     -  tonight´s decision	
intro, clean guitar(s)(x) = second guitar
				  |x3                              |
e------------------------------------------|
b------------------------------------------|
g|--1-----3-----4-----4-----4---- |--1-----3-----4-----4-----4---- |
d------4-----2-----1--|----(2)---(2)(4)-4-(1)-2-(1)-1--|
a---------------------|----(4)---(4)(6)---(2)---(2)(6)-|
e|--4-----4-----4-----4-----4-----|--4-----4-----4-----4-----4-----|
leadguitar, dist: |x2
e----------------------------------------------|
b----------------------------------------------|
g---------6-6-----8-8-8---------6-6------------|
d|--------8-8-8-----------6-6-------|-------8-8-8-----------6-6-9-9-9--|
a|--6-6-6-------7-7-7---------------|-6-6-6-------7-7-7----------------|
e----------------------------------------------| |x2
e----------------------------------------------|
b----------------------------------------------|
g|--8-8-8-7-7-7---------------------|-8-8-8-7-7-7----------------------|
d---8-8-8-9-9-9-9-9-9-9---8-8-8-9-9-9-9-9-9-9--|
a----------------------------------------------|
e----------------------------------------------|
 - "well i´m here, and the summer is gone...."
e--------------------------------------------------------|
b--------------------------------------------------------|
g--------------------------------------------------------|
d|-6-6-6-6-6-6-6-6-6-6-6-6-6-6-6-6-6-6-6-6-6-6-6-6-6-6-6-6-6-6-6-6-6-|
a--------------------------------------------------------|
e--------------------------------------------------------|
so far this is it.
i don´t know the tuning of the guitar, but drop down the "low e" to "c#"
the rest of the strings i don´t know. i have tabed this song in normal
tune though. good luck, and mail me if you want to add something.//EMIL//  


Текст, аккорды и табулатура для песни "For My Demons", исполняет "Katatonia".
Используемые в песне аккорды можно найти в разделе Как брать аккорды. Аккорды для шестиструнной гитары. Другие песни можно найти на нашем сайте, воспользовавшись алфавитным указателем вверху страницы.


 
Ошибка в тексте? Выделите ошибку и нажмите Ctrl+Enter