Artist: Kashmir
Song: Graceland
Album: The good life
Tabbed by: Ertner


VERS

G Gsus G D Em Gsus G D - Dsus - D
e--3---3------3---2---3----3------3---2---3------2- -g-
h--3---3------3---3---5----3------3---3---3------3- -e-
g--4---5------4---2---4----5------4---2---2------2- -n-
d-------------------------------------------------- -t-
a-------------------------------------------------- -a-
e-------------------------------------------------- -g-
I wish I lived in graceland...

ОМКVЖD#1

Gsus/c G/h Gsus/a G Gsus/a Gsus/c G D - Dsus - D
e--3--------3-----3--------3---3--------3--------3- -2---3------2- -g-
h--3--------3-----3--------3---3--------3--------3- -3---3------3- -e-
g--5--------4-----5--------4---5--------5--------4- -2---2------2- -n-
d-------------------------------------------------- -------------- -t-
a-------------------------------------------------- -------------- -a-
e-------------------------------------------------- -------------- -g-
40.000.000.000...

ОМКVЖD#2

Cadd9 G/h Am7 G Am7 Cadd9 G D - Dsus - D
e--3-------3-----3-----3---3-----3-------3---2---3------2- -g-
h--3-------3-----1-----3---1-----3-------3---3---3------3- -e-
g--0-------0-----0-----0---0-----0-------0---2---2------2- -n-
d--2-------0-----2-----0---2-----2-------0---------------- -t-
a--3-------2-----0-----2---0-----3-------2---------------- -a-
e----------------------3-----------------3---------------- -g-
Forty thousand million...

B-STK

Cadd9 Hm Am F Em G D Am Csus2 G G Em7 
e--3---- ------------------ -7----8---8--7-8-9--9--12--15--- -3-3-3-3-
h--3---- ------------------ -7---10--10--8---8--9--13--15--- -3-3-3-3-
g--0---- -9--7--5---------- -7----9--10--9---7--7--14--17--- -0-0-0-0-
d--2---- ----------9--7--5- -------------------------------- -0-0-2-2-
a--3---- -7--5--3---------- -------------------------------- -2-2-2-2-
e------- ----------7--5--3- -------------------------------- -3-3-0-0-
I drown in my drool..

SOLO

Cadd9 Em7 G Em7 Cadd9 Em7 G Em7 Am7 Cadd9 G D Cadd9
e---------------------------------------------------------------3-----
h---------------------------------------------------------------3-----
g--12----7---4-7---12----7^12^7-4-7---12-----7--4-4^5^4-2-2^4^2-0-----
d---------------------------------------------------------------2-----
a---------------------------------------------------------------3-----
e---------------------------------------------------------------------


Текст, аккорды и табулатура для песни "Graceland", исполняет "Kashmir".
Используемые в песне аккорды можно найти в разделе Как брать аккорды. Аккорды для шестиструнной гитары. Другие песни можно найти на нашем сайте, воспользовавшись алфавитным указателем вверху страницы.


 
Ошибка в тексте? Выделите ошибку и нажмите Ctrl+Enter