Вступление: 
   
e---8----8----8---8----7---7-----8---8-7--
b-----8----8----7---7----6---6-----8----8-
g----8----8-8--8---8-8--7---7-7---8---8---   2 раза
d-10---10----7---7----6---6----10---7-----
a-----------------------------------------
e-----------------------------------------

e---8----8----8---8----7---7-----8----8----
b-----8----8----7---7----6---6-----8----8--
g----8----8-8--8---8-8--7---7-7---8----8-8-   2 раза
d-10---10----7---7----6---6----10---10-----
a------------------------------------------
e------------------------------------------

Cm                    C7
Солнце выходило из-за гор
       Fm  Bb     Eb
До сих пор, до весны
         G              Cm
Я так не верил в солнце.
                         C7
Я вчера играл с детьми Луны
      Fm   Bb
В мутабор!
      Eb            G
Превращаюсь нынче в сына солнца.

Припев:
   Cm           F#dim
     Эй, балет! Галоп алле!
   Fdim                   Cm     F#dim G
     Мне тридцать лет неполных.
     Я стою, и на краю
     Стою, пою: "Подсолнух..."

Проигрыш:

e---8----8----8---8----7---7-----8---8-7--
b-----8----8----7---7----6---6-----8----8-
g----8----8-8--8---8-8--7---7-7---8---8---   
d-10---10----7---7----6---6----10---7-----
a-----------------------------------------
e-----------------------------------------

Я иду, шагаю налегке
Вдалеке... Ввысоке,
По головам кумиров.
Я рисую светлую звезду
На ходу на руке,
На самой пясти мира.

Припев:
     Эй, трубач! Труби подъем!
     Я нынче - командиром.
     А споткнусь, иди, не трусь,
     Ступай по мне - по миру.

     Эй, балет! Галоп алле!
     Мне тридцать лет неполных.
     Я стою, и на краю
     Стою, пою: "Подсолнух..."

	
	
	        
Комментарий автора: Cm - VIII лад F#dim 8787xx Fdim 7676xx G 7875xx

Текст, аккорды и табулатура для песни "Подсолнух", исполняет "Кашин Павел".
Используемые в песне аккорды можно найти в разделе Как брать аккорды. Аккорды для шестиструнной гитары. Другие песни можно найти на нашем сайте, воспользовавшись алфавитным указателем вверху страницы.


 
Ошибка в тексте? Выделите ошибку и нажмите Ctrl+Enter