Kane – Rain down on me

Intro: gradually fade in           1st ending   2nd ending
G|----------|----------|----------|----------|  ----------|
D|*---------|----------|----------|---------*|  ----------|
A|*44444444-|-66666666-|-88888888-|-88888888*|  -888888---|
E|----------|----------|----------|----------|  ----------|

G|----------|----------|----------|----------|
D|*---------|----------|----------|---------*| play 2x
A|*44444444-|-66666666-|-88888888-|-88888888*|
E|----------|----------|----------|----------|

Verse1: first 16 bars rest, then:
G|-----------|----------|----------|----------|
D|-------1-3-|-1--------|-------1--|-1h3------|
A|---1-3-----|----------|---1-3----|----------|
E|-1---------|----------|-1--------|----------|

G|-----------|------------|----------|---------|
D|-------1-3-|-1----------|-------1--|---------|
A|---1-3-----|----1-1-2-3-|---1-3----|---------|
E|-1---------|------------|-1--------|-1-------|

G|-----------|----------|----------|----------|
D|-------1-3-|-1--------|-------1--|----------|
A|---1-3-----|----------|---1-3----|----------|
E|-1---------|----------|-1--------|-1--------|

G|-----------|----------|
D|-------1-3-|-1--------|
A|---1-3-----|----------|
E|-1---------|------/13|

Pre-chorus:
G|----------|----------|
D|*---------|---------*| play 2x
A|*---------|---------*|
E|-6-6-6646-|--6-46764-|

Chorus:
G|----------|----------|----------|----------|
D|*---------|----------|----------|---------*| play 2x
A|*44444444-|-66666666-|-88888888-|-88888888*|
E|----------|----------|----------|----------|

G|----------|-----353--|
D|*---------|--------6*| play 2x  
A|*xx4-4446-|--666----*|
E|----------|----------|

G|----------|----------|----------|
D|----------|----------|----------|
A|-xx4-4446-|--6666666-|-6========|
E|----------|----------|----------|

Interlude:
G|----------|----------|----------|----------|
D|*---------|----------|----------|---------*| play 2x
A|*44444444-|-66666666-|-88888888-|-88888888*|
E|----------|----------|----------|----------|

Repeat what is played at verse 1
Repeat Pre-Chorus
Repeat Chorus, let the last note ring for 4 measures

Bridge:
G|---------8-|-----------|-10------13|-----------|
D|-----6-----|-------8---|-----10----|--10------|
A|-4---------|---6-------|-----------|------8--6-|
E|-----------|-----------|-----------|-----------|

G|---------8-|-----------|-----------|-----------|
D|-----6-----|-------8--|-----------|-----------|
A|-4---------|---6-------|-----------|-----------|
E|-----------|-----------|-1=====----|-----------|

G|---------8-|-----------|-10------13|-----------|
D|-----6-----|-------8---|-----10----|--10------|
A|-4---------|---6-------|-----------|------8--6-|
E|-----------|-----------|-----------|-----------|

G|---------8=|====-------|
D|-----6-----|-----------|
A|-4---------|-----------|
E|-----------|-----------|

Repeat Pre-chorus
Repeat Chorus with this ending:
G|----------|----------|----------|----------|
D|----------|----------|----------|-131-131--|
A|-xx4-4446-|--6666666-|------133-|----3---3-|
E|----------|----------|-11114----|----------|

then play the main riff of the interlude four times and end on an F


Текст, аккорды и табулатура для песни "Rain Down On Me", исполняет "Kane".
Используемые в песне аккорды можно найти в разделе Как брать аккорды. Аккорды для шестиструнной гитары. Другие песни можно найти на нашем сайте, воспользовавшись алфавитным указателем вверху страницы.


 
Ошибка в тексте? Выделите ошибку и нажмите Ctrl+Enter