kamikazee;girl friend;standard tuning
tabbed by:Daryl A.
engage commentz:(09192465288)

intro:
-----------------------------------------------------------------------
--------------4-4------------------------------------------------------
-3-3------3-3-----3-3-1-1-0-0-1-1-3-----4-4--------------------4-------
-3-3--1-1-----------------------------------4-4-1-1-0-0-1-1-3--3-------
-1-1--------------------------------3-3------------------------1-------
---------------------------------------------------------------1-------

verses:parts of this played palmute
-----------|-----------|---------------------------
-------4-2-|-4/6/8/9-9-|------------4-4-4-2-2-2----
---8-8-5-3-|-3/5/7/8-8-|8-8-8-8-8-8-5-5-5-3-3-3----
---8-8-5-3-|-1/3/5/6-6-|8-8-8-8-8-8-5-5-5-3-3-3----
---6-6-3-1-|-----------|6-----6-----3-----1--------
-----6-----|-----------|------6--------------------
pm . . . .              .     .     .     .   

bridge
-4-------------
-3-------------
-1---3-5-3-----
---6-3-5-3-----
---6-1-3-------
---4-----------

adlib:
--------------------------------------------|------------------------------
--------------------------------------------|----4-4-4-4-4-----4-4-4-4-4---
-----3---3---3------3---3---3-----3---3---3-|----3-3-3-3-3-----3-3-3-3-3---
-1-1---1---1--------------------------------|-1-1--------------------------
----------------3-3---3---3---1-1---1---1---|---------------3-3------------
--------------------------------------------|------------------------------

---------------|-----------------------------------------------------
-----4-4-4-4-4-|-----3-3-3-3-3-------3-3-3-3-3-3-----3-3-3-3-3--4-4--
-----3-3-3-3-3-|------------------------------------------------3-3--
---------------|-1-1--------------------------------------------1-1--
-1-1-----------|-----------------3-3-------------1-1-----------------
---------------|-----------------------------------------------------

i learn to be.... part
---------------
-4-------------
-3---5-3-------
-1-6-5-3-------
---6-3-1-------
---4-----------

outro:dont ever let me go...part do intro; 
      then it ends wit tiz one 
----------------
----------------
-----3-4---3----
-1-1-----1------
----------------
----------------

                                     {end}


Текст, аккорды и табулатура для песни "Girlfriend", исполняет "Kamikaze".
Используемые в песне аккорды можно найти в разделе Как брать аккорды. Аккорды для шестиструнной гитары. Другие песни можно найти на нашем сайте, воспользовавшись алфавитным указателем вверху страницы.


 
Ошибка в тексте? Выделите ошибку и нажмите Ctrl+Enter