Tabbed by: Eyeore
This sounds best played with overdrive on your amp.  It's a simplified version of the song.  
e|-------------------------I----------------------I---------------------------
B|-----------------7-------I---10-----7-----------I------------------7--9h10--
G|-----------7--9-----7--9-I-------9-----7--------I------------7--9-----------
D|----7--11----------------I----------------11--9-I--9--11--9-----------------
A|-------------------------I----------------------I---------------------------
E|-------------------------I----------------------I---------------------------

e|----------------I----------------------I-----------------------------------|
B|--9--7----------I----------------------I--10--12--15--13--12--9s10---------|
G|--------9--7--6-I--9--7--6--7--6-------I-----------------------------------|
D|----------------I-----------------9--7-I-----------------------------------|
A|----------------I----------------------I-----------------------------------|
E|----------------I----------------------I-----------------------------------|

e|---9--10--12--14--15--17--18-I--9--10--12-14-15--18--19--18--16--18--16--15--
B|-----------------------------I-----------------------------------------------
G|-----------------------------I-----------------------------------------------
D|-----------------------------I-----------------------------------------------
A|-----------------------------I-----------------------------------------------
E|-----------------------------I-----------------------------------------------

e|--------------------------------------------------------------------------|
BI--9--7--6--7--6-----------------------------------------------------------|
G|-----------------8--6-----------------------------------------------------|
D|--------------------------------------------------------------------------|
A|--------------------------------------------------------------------------|
E|--------------------------------------------------------------------------|

e|-------------------------I----------------------I---------------------------
B|-----------------7-------I---10-----7-----------I------------------7--9h10--
G|-----------7--9-----7--9-I-------9-----7--------I------------7--9-----------
D|----7--11----------------I----------------11--9-I--9--11--9-----------------
A|-------------------------I----------------------I---------------------------
E|-------------------------I----------------------I---------------------------

e|----------------I----------------------I
B|--9--7----------I----------------------I
G|--------9--7--6-I--9--7--6--7--6-------I
D|----------------I-----------------9--7-I
A|----------------I----------------------I
E|----------------I----------------------I


Текст, аккорды и табулатура для песни "Pakistan National Anthem", исполняет "Junoon".
Используемые в песне аккорды можно найти в разделе Как брать аккорды. Аккорды для шестиструнной гитары. Другие песни можно найти на нашем сайте, воспользовавшись алфавитным указателем вверху страницы.


 
Ошибка в тексте? Выделите ошибку и нажмите Ctrl+Enter