Meri Awaz Suno (Azaadi)

	Am		Dm		C		G		 E
--------0---------------1---------------0---------------3----------------0-----------
------1---1-----------3---3-----------1---1-----------3---3------------0---0---------
----2-------2-------2------ 2-------0-------0-------0-------0--------1-------1-------
------------------0------------------------------------------------------------------
--0------------------------------3--------------------------------2------------------
--------------------------------------------------3----------------------------------

Pick the chords as shown above:

     Am		    Dm   Am
Meri awaz suno mujhe azad karo
     C	G	E   Am
Meri awaz suno insaf do

Use bar chords here:
Am Am Am D D D
Am Am Am then

Riff 1

e -----------------------------------------------------------
B -----------------------------------------------------------
G -----------------------------------------------------------
D ----------5------------------------------------------------
A ----3---3---5--3-------------------------------------------
E --5---5----------------------------------------------------

Repeat 

	Am		    Dm    Am
Meri awaz suno mujhe azad karo
	C    G     E   Am
Meri awaz suno insaf do
  Am	 C G  E  Am
Azad karo Insaf do

		  Am	   C	
Karon kuon ghulami teri
    Dm            Am
Ghulami teri kuon zalaman
	      Am  E	  C
Mangon na Khudai teri
    Dm               C	G	E
Mangon men to haq zalama

Meri awaz suno mujhe azad karo
Meri awaz suno insaf do
Azad karo Insaf do
Tere sang zamana sara 
Khuda he mere sang zalama
Meri awaz suno mujhe azad karo
Meri awaz suno insaf do
Azad karo Insaf do

Tabbed by: The Unaffectionate Nomster (TUN)
Any criticisms, corrections, and/or suggestions are welcome.
Please e-mail me at: [email protected]


Текст, аккорды и табулатура для песни "Meri Awaz Suno", исполняет "Junoon".
Используемые в песне аккорды можно найти в разделе Как брать аккорды. Аккорды для шестиструнной гитары. Другие песни можно найти на нашем сайте, воспользовавшись алфавитным указателем вверху страницы.


 
Ошибка в тексте? Выделите ошибку и нажмите Ctrl+Enter