Jazba Junoon (Inquilaab)

x	-	mute with left hand (if you are a right handed guitarist)
h	-	hammer on (3h5 means hammer on from 3rd fret to 5th fret)
p	-	pull off (9p7 means pull off from 9th fret to 7th fret)
b	-	bend up/down (4b5 is bend up, 8b6 is bend down)
/	-	slide up (5/7 is a slide from the 5th fret to the 7th)
	-	slide down (118 is a slide from the 11th fret to the 8th)
(5)	-	Any number in brackets() means that you keep that fret and 
		let the tone ring

I don't think there's any single right method to play this riff. 
Basically you play the A minor chord only with a change every other beat, 
where all you do is hit the 3rd fret of the 2nd string with your little finger. 
That's how you'll hear that change in the sound of the chord. However, I have 
tabbed it down as simply as I could. Remember to strum this chord upward as well 
as downward in a rapid action.
Riff 1

Guitar 1					
e ------------------------------------------------------------------
B --1--1--1--1--1-------------3--1--1--1--1-------------------------
G --2--2--2--2--2-------------2--2--2--2--2-------------------------
D --2--2-----2--2-------------2--2-----2--2-------------------------
A --0--0----------------------0--0----------------------------------
E ------------------------------------------------------------------

Intro Guitar 2
e ------------------------------------------------------------------
B ------------------------------------------------------------------
G -7b9--7p54---2h5p4--2h5p4--2h5p4--2h5p4--2p0---------------------
D -----------------------------------------------5/7----------------
A ------------------------------------------------------------------
E ------------------------------------------------------------------

Play Riff 1
Hai Jazba Junoon to himmat na haar
Hai Jazba Junoon to himmat na haar

Riff 1                G       Am
Justujoo jo kare who chhooai aasmaan
F		C	G			Am
Mehnat apni hogi pehchaan kabhi na bhoolo
F	    C
Sabki Nazron mein
E  (let ring)	     Am  Am  C		               
Pakistan kabhi na bhoolo
G		    Am    Am	C
Pakistan hai tumhara
G		    Am  Riff 1
Pakistan hai humara

Am    C         G   F
Apna ghar apni sar zameen
Am       C    G    F
Sab kuch hai bus yaheen
G			  E
Itna to hai humko yaqeen

I can't remember the rest of the lyrics but they follow the same format for chords.

Tabbed by: The Unaffectionate Nomster (TUN)
Any criticisms, corrections, and/or suggestions are welcome.
Please e-mail me at: [email protected]

Текст, аккорды и табулатура для песни "Jazba Junoon", исполняет "Junoon".
Используемые в песне аккорды можно найти в разделе Как брать аккорды. Аккорды для шестиструнной гитары. Другие песни можно найти на нашем сайте, воспользовавшись алфавитным указателем вверху страницы.

Ошибка в тексте? Выделите ошибку и нажмите Ctrl+Enter