The Juliana Theory - You Always Say Goodnight, Goodnight 
By:Andrew Mcshan([email protected])

Verse
e|-------------------------------------------------------------------------|
B|-------------------------------------------------------------------------|
G|--7---------5------------------------------------------------------------|
D|--7--8--5---5------------------------------------------------------------|
A|--5--8--5---3------------------------------------------------------------|
E|-----6--3----------------------------------------------------------------|
Guitar 2 Does this
e|---------8---------------------------------------------------------------|
B|-5/6---------------------------------------------------------------------|
G|-------------------------------------------------------------------------|
D|-------------------------------------------------------------------------|
A|-------------------------------------------------------------------------|
E|-------------------------------------------------------------------------|
Chorus
e|-------------------------------------------------------------------------|
B|-------------------------------------------------------------------------|
G|--7---10-----------------------------------------------------------------|
D|--7---10-----------------------------------------------------------------|
A|--5---8------------------------------------------------------------------|
E|-------------------------------------------------------------------------|
Solo
e|-------------------------------------------------------------------------|
B|-------------------------------------------------------------------------|
G|--7----7-10-9-7----------7-9-9-10-9-7-7----7-9-10-12---------------------|
D|-----7-------------7---------------------7-------------------------------|
A|-------------------------------------------------------------------------|
E|-------------------------------------------------------------------------|


Текст, аккорды и табулатура для песни "You Always Say Goodnight Goodnight", исполняет "Juliana Theory".
Используемые в песне аккорды можно найти в разделе Как брать аккорды. Аккорды для шестиструнной гитары. Другие песни можно найти на нашем сайте, воспользовавшись алфавитным указателем вверху страницы.


 
Ошибка в тексте? Выделите ошибку и нажмите Ctrl+Enter