Tabbed by Brad Belisle
AIM- mocheeze99
Riff A
e-------------------------------------------
B-------------------------------------------
G-4-4-4-4/14-14-14-14--4-4-4-4/14-14-14-14-- 
D------------------------------------------- 
A-2-2-2-2/12-12-12-12--2-2-2-2/12-12-12-12--
E-------------------------------------------



Riff B
e-----------------------------|
B-----------------------------|
G-----14--9-------------14--9-| 
D--9----------9------9--------|  
A-----12--7-------------12--7-| 
E--7----------7------7--------|

Riff C
e---------------------------|
B---------------------------|
G--7-7-7-7-6-6-----4-4-4-4--|
D--4-4-4-4------------------|
A--5-5-5-5-4-4-4-4-2-2-2-2--|
E--------------5-5----------|

Solo 1
e-----------------------------------------------------|
B--10--8--7-------------------10--8--7------7-7h8p7---|
G-----------7---6--7-6h7p6-------------7--9---------7-|
D--------------------------7--------------------------|
A-----------------------------------------------------|
E-----------------------------------------------------|



Solo 2
e-----------------10-7--------------------------10-7------------|
B----------------------10-7-10b12--------------------10-7-10b12-|
G--9b11-9b11-9b11-----------------9b11-9b11-9b11----------------|
D---------------------------------------------------------------|
A---------------------------------------------------------------|
E---------------------------------------------------------------|

e--------------------10-7----------------------------------------|
B--10b12-10b12-10b12------10-7-10b12-10-10b12r10-7---------------|
G--------------------------------------------------9-7-9b10-7----|
D-------------------------------------------------------------9--|
A----------------------------------------------------------------|
E----------------------------------------------------------------|


Текст, аккорды и табулатура для песни "To The Tune Of 5000 Screaming Children", исполняет "Juliana Theory".
Используемые в песне аккорды можно найти в разделе Как брать аккорды. Аккорды для шестиструнной гитары. Другие песни можно найти на нашем сайте, воспользовавшись алфавитным указателем вверху страницы.


 
Ошибка в тексте? Выделите ошибку и нажмите Ctrl+Enter