Song:	     Inside Of You
Band:	     Jugheads Revenge
Album:	     Image is Everything
Tabbed by:   Devlin Thornicroft([email protected])



	VERSE
G:-------------------------------
D:-------------------------------
A:-----2>----5>-3>-2>-0>-5-3-2---
E:--3>----0>---------------------

G:-------------------------------:
D:-------------------------------:
A:----2>----5>-3>-2>----3>-2>----:
E:-3>----0>----------0>-------0>-:    x2


	CHORUS

G:----------------------------------:
D:----------------------------------:
A:--------7-7-7-------7-7-7--5-5-5--:  x1
E:--5-5-5-------5-5-5---------------:


VERSE	x1

CHORUS	x1


	BRIDGE

G:--------------------------------------------------------:
D:--------------------------------------------------------:
A:-----2>-5-0-2-----2>-----------2>-5-0-2-----2>----------:
E:--3>-----------3>----2-3-5--3>-----------3>----5-7-3-0--:


	BIT AFTER(pre verse)

A:--3--0--3--5>--3--2--0--:
E:------------------------:


VERSE	x1


	ENDING

G:-------------9---9-------------:
D:----10---9---------------------:
A:-----------7---7---------------:
E:--8---7------------0--2-2-3----:


Текст, аккорды и табулатура для песни "Inside Of You", исполняет "Jugheads Revenge".
Используемые в песне аккорды можно найти в разделе Как брать аккорды. Аккорды для шестиструнной гитары. Другие песни можно найти на нашем сайте, воспользовавшись алфавитным указателем вверху страницы.


 
Ошибка в тексте? Выделите ошибку и нажмите Ctrl+Enter