Вступление:
  (E)                       H                   A
e|----------------------------------------------------------|
B|----------------------------------------------------------|
G|----------------------------------------------------------|
D|----------------------------------------------------------|
A|-44-2--44-2--44-2--44-22--44-00----2-2-44-22--44-00-------|
E|--------------------------------22-----------------22-----|

               E
e|---------------------------------------------------------------|
B|---------------------------------------------------------------|
G|---------------------------------------------------------------|
D|---------------------------------------------------------------|
A|---------------------------------------------------------------|
E|-7-7-99-77---12-0-11-0-10-0-9----12-0-11-0-10-0-9--------------|

e|------------------------------------------------|
B|------------------------------------------------|
G|------9-9--8---9-9--8--9-9--8--9-9--8-----------|
D|------1111-10--1111-10-1111-10-1111-10----------|
A|------------------------------------------------|
E|------------------------------------------------|

    H                            A                  E
e|----------------------------------------------------------------|
B|-------------------------------------------------------------7--|
G|--9-9--66-----8-8--9-9---8-8---9-9--66-----------------9-----9--|
D|--1111-77-77--1010-1111--1010--1111-77-77--999-7-6----9------9--|
A|----------99---------------------------99----------9-7---7------|
E|----------------------------------------------------------------|

E                   H         A                    E
Cuando yo estoy pensando en ti amor es lo que mas fuerte sale de mi
por eso yo siempre vivo tan feliz pues tu eres lo que yo mas quiero para mi
 cuando yo me voy para Medellin en cada montana yo dibujos trozos de ti
y si yo me voy para Bogota tambien alla esa sabana bella de ti
me hace recordar

Припев:
 G#m     Gm      F#m
he recorrido el mundo entero y jamas

               H7                  E
te digo que he visto una cosa mas bella que tu mirar

               Abm       Gm     F#m
te digo que he visto la luna de noche hablar con el mar

               B7                 E
pero jamas he visto una cosa mas bella que tu mirar


                                      H
y es que son tus ojos tu sonrisa y tu boca
                 A                                  E
y tu carita de coqueta a la final lo que me gusta a mi
y soy yo quien se pone siempre como un loco
cuando me miras poco a poco de la manera que me gusta a mi

Проигрыш

  E                     H
ayer hacia mucho mucho pero mucho calor

             A                E
y yo sentia frio porque no tenia todo tu amor
hoy en cambio hace frio y siento mucho calor
porque estas tu de nuevo conmigo mi gran amor

Припев


Текст, аккорды и табулатура для песни "Lo Que Me Gusta A Mi", исполняет "Juanes".
Используемые в песне аккорды можно найти в разделе Как брать аккорды. Аккорды для шестиструнной гитары. Другие песни можно найти на нашем сайте, воспользовавшись алфавитным указателем вверху страницы.


Слушать онлайн Lo Que Me Gusta A Mi


JuanesLo Que Me Gusta A Mi на Яндекс.Музыке


 
Ошибка в тексте? Выделите ошибку и нажмите Ctrl+Enter