The Annexation of Puerto Rico

Chorus
|-------------------|--------------|------------------------|
|-------------------|--------------|------------------------|
|*-----------------*|*------------*|------------------------|
|*------4-444------*|*-5-555------*|-77777777--999910101010-|
|-2222--2-222-------|--3-333-------|—55555555—-7777-8-8-8-8-|
|-0000--0—000-3p2p0-|-------5-55-3-|------------------------|

Intro/Verse(order at bottom of page)
|---------------------------------|
|---------------------------------|
|-----7-------7-------7-------7---|
|---7---7---7---7---7---7---7---7-| (A)
|-5-------4--—------------4-------|
|----------—------7---------------|

|---------------------------------|
|---------------------------------|
|-----7-------7-------7-------7---|
|---7---7---7---7---7---7---7---7-| (B)
|-5-------4-----------------------|
|---------—-------7-------5-------|


|----------------------------------|
|----------------------------------|
|-----7-------7-------7-------7----|
|---7---7---7---7---7---7---7---7--|(C)
|-5-------7-------9—------7--------|
|---------—------------------------|


|-----------------------------------|
|-----------------------------------|
|------7-------7-------7-------7----|
|----7---7---7---7---7---7---7---7--| (D)
|-10-------9-------7—------5--------|
|---------—-------------------------|

|------------------------------------------------|
|---------------------------------1st------2nd---| 
|-------12---------10--------9-------7-----------|
|----12----12---10----10---9---9---7---7---------| (E) 
|-10----------8----------7-------5---------5-----|
|------------------------------------------------| 


Bridge
|---------------------------------------------|
|--------------------------1st----------2nd---| 
|---7---7-----9-----5---5------10-----10---9--|
|-----7-----9---9-----5------10--10-----------| 
|-5-------7--------3-------8--------8----7----|
|---------------------------------------------| 

Outro
|-------------------------------------------2h3p2-----------|
|-------------------------------2---------3-------3---------| 
|-----7-------7-------4-------2---2-----2-----------2-------|
|---7---7---7---7---4---4---2-------2-0---------------0--------------| 
|-5-------4-------2-------0------------------------------------------|
|--------------------------------------------------------------------|

Order of Verse
A, B, C, B, D, E


Текст, аккорды и табулатура для песни "The Annexation Of Puerto Rico", исполняет "Jua Music".
Используемые в песне аккорды можно найти в разделе Как брать аккорды. Аккорды для шестиструнной гитары. Другие песни можно найти на нашем сайте, воспользовавшись алфавитным указателем вверху страницы.


 
Ошибка в тексте? Выделите ошибку и нажмите Ctrl+Enter