Sandwich Mafia
DADGBe
Intro/Outro (slows down during outro)
|------------------------------------------------|-------------------|
|------------------------------------------------|-------------------|
|-------------5---3---2----------------5---7-----|-------------------|
|---0-7h8p7p0---7---5---3----0-7h8p7p0---7---8-7-|-0—play bunch of—--|    
|---------------—--------------------------------|-0—times-start PM--|
|-0--------—---------------0---------------------|-0-----------------|

|------------------------------|
|------------------------------|
|-------7-8-5---------7-8-10---|
|-------7-8-5---------7-8-10---|G2 comes in second time with 
|-0-0-0---------0-0—0----------|   higher notes
|-0-0-0------—--0-0-0----------|

Chorus
|-------------------------------------|
|-------------------------------------|
|-------------------------------------|
|-------------------------------------|
|-8-0-7-0-5-0-7-0-8-0-10-0-8-0-10-0-7-|
|-8-0-7-0-5-0-7-0-8—0-10-0-8-0-10-0-7-|

|----------------------------------------------------|
|----------------------------------------------------|
|----------------------------------------------------|
|-8-8-8-7-7-7-5-5-5-7-7-7--8-8-8-7-7-7-5-5-5--5-7-3--|
|-8-8-8-7-7-7-5-5-5-7-7-7--8-8—8-7-7-7-5-5-5--5-7-3--|
|-8-8-8-7-7-7-5-5-5—7-7-7--8-8-8-7-7-7-5-5-5--5-7-3--|

Verse
|---------------------------------------------------------|
|--------------1st---------------2nd------3rd----4th------|
|---------------------------------------------------------|
|---9------7-----------9------7---10------9---------------|
|-7---10-9---9-10----7---10-9---9----------------7--------|
|-0--------—---------0------------------------------------|

Bridge before last chorus and outro
|-------------------------------------|------------|
|-------------------------------------|------------|
|-------------------------------------|------------|
|-------------------------------------|-8-7-7-7----|
|-8-7-10-0-0-5-0-0--8-7-10-0-0-12—0-0-|-8-7-7-7----|
|-8-7-10-0-0-5-0-0-—8-7-10-0-0-12-0-0-|-8-7-7-7----|
                                          Pm---
                                        Play like science by SOAD


Текст, аккорды и табулатура для песни "Sandwich Mafia", исполняет "Jua Music".
Используемые в песне аккорды можно найти в разделе Как брать аккорды. Аккорды для шестиструнной гитары. Другие песни можно найти на нашем сайте, воспользовавшись алфавитным указателем вверху страницы.


 
Ошибка в тексте? Выделите ошибку и нажмите Ctrl+Enter