#----------------------------------PLEASE NOTE--------------------------------#
#This file is the author's own work and represents their interpretation of the#
#song. You may only use this file for private study, scholarship, or research.#
#-----------------------------------------------------------------------------#


From:	[email protected]
Sent:	27 July 1998 09:00 PM
Subject: j/joy_division/walked_in_line.crd

WALKED  IN  LINE   by   JOY DIVISION   as it was recorded in the album
Still

Intro:

E--------------------------------------------------------------------------|
B--------------------------------------------------------------------------|
G--------------------------------------------------------------------------|
D--------------------------------------------------------------------------|
A-2--2-2-2-2-2-2-2-2-2-2-2--0-----------------------------------0----------|
E---------------------------------------3--3-3-3-3-3-3-3-3-3-0-3-----------|

E--------------------------------------------------------------------------|
B--------------------------------------------------------------------------|
G--------------------------------------------------------------------------|
D--------------------------------------------------------------------0--0--|
A-2--2-2-2-2-2-2-2-2-2-2-2-0---------------------0-0-0-0-------------------|
E--------------------------------------3--3-3-3-3-3-3----------------------|

Bm                                          Am      Gm
      All dressed in uniforms so     fine
                                                              Am    Bm
  They drunk and killed to pass their   time
                                                    Am     Gm
  Wearing the shame of all their   crimes
                                 Am              Dm             Bm
  With measured step they   walked in line
                                                                  Am    Gm
  They walked in line, they walked in      line
                                 Am              Dm           Bm
  They walked in line, they walked in line

They carried pictures of their wives
And number tags to prove their lies
They walked in line, they walked in line
Full of a glory never seen
They made it through the whole machine
To never question anymore
Hypnotic trance they never saw
They walked in line, they walked in line
Walked in line

Bm:799777
Am:755777
Gm:355333
Dm:557755


The transcription was made by Steve Drenos
E-mail address
[email protected]


Текст, аккорды и табулатура для песни "Walked In Line", исполняет "Joy Division".
Используемые в песне аккорды можно найти в разделе Как брать аккорды. Аккорды для шестиструнной гитары. Другие песни можно найти на нашем сайте, воспользовавшись алфавитным указателем вверху страницы.


 
Ошибка в тексте? Выделите ошибку и нажмите Ctrl+Enter