#----------------------------------PLEASE NOTE---------------------------------#
#This file is the author's own work and represents their interpretation of the #
#song. You may only use this file for private study, scholarship, or research. #
#------------------------------------------------------------------------------#


Pretend to be Nice
Josie and the Pussycats
tabbed by:  [email protected]  12/09/02

verse
G---------------------------------------------------
D---------------------------------------------------
A---3-3-3-3-3-3-3-3----7-7-7-7-7-7-7-7--------------
E---------------------------------------------------

G---------------------------------------------------
D---------------------------------------------------
A----------------------5---3---5---3----------------
E---5-5-5-5-5-5-5-5---------------------------------

   x2

prechorus
G---------------------------------------------------
D---------------------------------------------------
A---3-3---------------------------x3----------------
E--------3-3--0-0--1-1------------------------------

   then:
G---------------------------------------------------
D---------------------------------------------------
A---------------------------------------------------
E---1-1-1-1--3-3-3-3--------------------------------

chorus
G---------------------------------------------------
D---------------------------------------------------
A---3-----------------------------x3----------------
E--------3----1-------------------------------------

G---------------------------------------------------
D---------------------------------------------------
A---------------------------------------------------
E---3-3-3-3-3-3-3-3-3-------------------------------

G---------------------------------------------------
D---------------------------------------------------
A---3-3---------------------------x3----------------
E--------3-3--0-0--1-1------------------------------

G---------------------------------------------------
D---------------------------------------------------
A---3-3-------3-/8-7-5------------------------------
E--------3-3----------------------------------------

repeat from top once...then:

key change/guitar solo
G---------------------------------------------------
D---------------------------------------------------
A---5-5-5-5-5-5-5-5---9-9-9-9-9-9-9-9---------------
E---------------------------------------------------

G---------------------------------------------------
D---------------------------------------------------
A-------------5-5--7-7-----7--5--7--5---------------
E---7-7-7-7-----------------------------------------

G---------------------------------------------------
D---------------------------------------------------
A---5-5----------------------------x3---------------
E--------5-5--2-2--3-3------------------------------

G---------------------------------------------------
D---------------------------------------------------
A---------------------------------------------------
E---3-3-3-3--5-5-5-5--------------------------------

G---------------------------------------------------
D---------------------------------------------------
A---5-----------------------------x3----------------
E--------5----3-------------------------------------

G---------------------------------------------------
D---------------------------------------------------
A---------------------------------------------------
E--5-5-5-5-5-5-5-5-5--------------------------------

G---------------------------------------------------
D-------7-7--4-4--5-5-------------------------------
A--5-5----------------------------x3----------------
E---------------------------------------------------

G---------------------------------------------------
D---------------------------------------------------
A---------------------------------------------------
E--5-5-5-5-5-5-5-5-5--------------------------------

repeat and fade


Текст, аккорды и табулатура для песни "Pretend To Be Nice", исполняет "Josie And The Pussycats".
Используемые в песне аккорды можно найти в разделе Как брать аккорды. Аккорды для шестиструнной гитары. Другие песни можно найти на нашем сайте, воспользовавшись алфавитным указателем вверху страницы.


 
Ошибка в тексте? Выделите ошибку и нажмите Ctrl+Enter