Nightingale
Norah Jones
Album: Come Away With Me



Patterns:

Intro/Verse

  A                                 A/G                             
e------2---------------------------|-----2---------------------------|
B------------5---------------------|-----------5---------------------|
G------------------2-----2-----2---|-----------------2-----2-----2---|
D----2-----2-----2-----2-----2---2-|---2-----2-----2-----2-----2---2-|
A--0-----0-----0-----0-----0-------|---------------------------------|
E----------------------------------|-3-----3-----3-----3-----3-------|

  A/D                               (Intro only)
e------2----------------------------||----
B------------5----------------------||-5--
G------------------2-----2-----2----||-2--
D----2-----2-----2-----2-----2------||-2--
A--5-----5-----5-----5-----5--------||-0--
E-----------------------------------||----


Chorus/Solo/Outro

  A                                 A/G                            
e----------------------------------|---------------------------------|
B------5-----5-----5-----5-----5---|-----5-----5-----5-----5-----5---|
G------2-----2-----2-----2-----2---|-----2-----2-----2-----2-----2---|
D----2-----2-----2-----2-----2---2-|---2-----2-----2-----2-----2---2-|
A--0-----0-----0-----0-----0-------|---------------------------------|
E----------------------------------|-3-----3-----3-----3-----3-------|

  A/D                               A
e----------------------------------|----------------------------------
B------5-----5-----5-----5-----5---|-----5-----5-----5-----5-----5----
G------2-----2-----2-----2-----2---|-----2-----2-----2-----2-----2----
D----2-----2-----2-----2-----2---2-|---2-----2-----2-----2-----2---2--
A--5-----5-----5-----5-----5-------|-0-----0-----0-----0-----0--------
E----------------------------------|----------------------------------


(Varied slightly throughout the song)
--------------------------------------------

Intro:
|A   |A/G |A/D |A


        A
Nightingale
           A/G
Sing us a song
      A/D      A
Of a love that once belonged
        A
Nightingale
              A/G
Tell me your tale
          A/D     A
Was your journey far too long?


         A/G                         A/D
Does it seem like I'm looking for an answer
A                  A/G  
  To a question I can't ask
A/D                   A
  I don't know which way the feather falls
A/G               A/D
  If I should blow it to the left


        A
Nightingale
           A/G
Sing us a song
      A/D      A
Of a love that once belonged
        A
Nightingale
              A/G
Tell me your tale
          A/D     A
Was your journey far too long?


        A/G                        A/D
All the voices that are spinnin' around me
A                       A/G
  Trying to tell me what to say
A/D             A
  So can I fly right behind you
A/G                 A/D
  And you can take me away


Solo
|A   |A/G |A/D |A   |
|A   |A/G |A/D |A   |
|A   |A/G |A/D |A   |
|A   |A/G |A/D |A   |


        A/G                        A/D
All the voices that are spinnin' around me
A                       A/G
  Trying to tell me what to say
A/D             A
  So can I fly right behind you
A/G                 A/D
  And you can take me away


Outro
|A   |A/G |A/D |A   |
|A   |A/G |A/D |A   |
|A   |A/G |A/D |A   |
|A   |A/G |A/D |A


Текст, аккорды и табулатура для песни "Nightingale", исполняет "Jones Norah".
Используемые в песне аккорды можно найти в разделе Как брать аккорды. Аккорды для шестиструнной гитары. Другие песни можно найти на нашем сайте, воспользовавшись алфавитным указателем вверху страницы.


 
Ошибка в тексте? Выделите ошибку и нажмите Ctrl+Enter