Artist: Jack Johnson
Title: Taylor
Tab Author: gerge ([email protected])
Comments: Amazing song! i tried to get it as near
as possible to the original. i welcome comments in my
email box.

intro:

e-------------------------------------------------
B-------------------------------------------------
G---------x--------------------------x------------
D---------x--------------------------x------------
A--0-1h3--x--1-1h3----1p0------------x--------1-2-
E---------x--------3------3-2-0-1-1--x--1-2-3-----

e-------------------------------------------------
B-------------------------------------------------
G---------x--------------------------x------------
D---------x---1h3p1---1p0------------x------------
A--1-2h3--x-3-------3-----3-1-0------x-------1----
E---------x--------------------1-1---x--1-1h3-----

                                              Fmaj7
e----------------------------------------------1--
B----------------------------------------------7--
G------------------------------------------xx--2--
D--------------------3-3/5-3-0-2-----------xx--1--
A----1----1-----1h3--------------3-1-0-----xx--3--
E-1h3--1h3---1-------------------------1-1-xx--1--
                                      let the last
                                       chrd ring

verse:
these are in order, but listen to the cd for the rhythm

  Cmaj   B/Gmaj   Amin   Fmaj         Gmaj (he throws this in
                                            a few times)
e-------------------------------------------------  (repeat 10x)
B-------------------------------------------------
G-------------------------------------------------
D--2------0---------------------------------------
A--3------2--------3------0--(or-3)---------------
E------------------5------1--(---1)---------------
pm . . . . . . . . . . . . . . . . . . . . . . . .
Fmaj can be either, because he switches off.
whichever sounds better to you.

chorus:
these are in order, but listen to the cd for the rhythm
 Cmaj   B/Gmaj  Amin   Fmaj
E---------3-------0------1-------------------------  (repeat 4x)
A--1------3-------1------1-------------------------
D--0------0-------2------2-------------------------
G--2------0-------2------3-------------------------
B--3------2-------0------3-------------------------
e------------------------1-------------------------
on the last time around, dont play the Fmaj, and let
the Amin ring.

Outro: same as intro.


Текст, аккорды и табулатура для песни "Taylor", исполняет "Johnson Jack".
Используемые в песне аккорды можно найти в разделе Как брать аккорды. Аккорды для шестиструнной гитары. Другие песни можно найти на нашем сайте, воспользовавшись алфавитным указателем вверху страницы.


 
Ошибка в тексте? Выделите ошибку и нажмите Ctrl+Enter