This is how I play this song....It's the same chords as the first version on
here, but I believe he plucks more strings than that....also there's a
correction on the intro.

These chords are PLUCKED, not strummed. Listen to the song for the rhythm.

e-------7---5p3-2-3------------------------------------------------------
B-3p2p0---0---------5p3/2--0h2h3-5--7------------------------------------
G------------------------------------------------------------------------
D------------------------------------------------------------------------
A------------------------------------------------------------------------
E------------------------------------------------------------------------

VERSE

e---------------2--2-2-2--2---------------------------------------------
B---2--2-2-2--2-3--3-3-3--2---------------------------------------------
G---3--3-3-3--2-4--4-4-4--2---------------------------------------------
D---4--4-4-4--2------4--------------------------------------------------
A--------4------2-------------------------------------------------------
E-2---------------------------------------------------------------------

PRE-CHORUS

e-----------------------------------------------------------------------
B---2--2---2--2---3--3---5--5-------------------------------------------
G---3--3---3--3---4--4---6--6-------------------------------------------
D---4--4---4--4---5--5---7--7-------------------------------------------
A--------4--------------------------------------------------------------
E-2-------------3------5------------------------------------------------

CHORUS

e------------------------------------------------------------------------
B---7--7---5--5---3--3---2--2--------------------------------------------
G---7--7---6--6---4--4---3--3--------------------------------------------
D---9--9---7--7---5--5---4--4--------------------------------------------
A------------------------------------------------------------------------
E-7------5------3------2-------------------------------------------------

END ON

e------------------------------------------------------------------------
B------------------------------------------------------------------------
G------------------------------------------------------------------------
D------------------------------------------------------------------------
A------------------------------------------------------------------------
E-7----------------------------------------------------------------------

ORDER

VERSE [X4]
PRE-CHORUS
CHORUS [X2]
VERSE [X3]
PRE-CHORUS
CHORUS [X2]
CHORUS [X8]

Listen to the song to figure out where the lyrics go, it's not difficult.

Kellen Wright
[email protected]


Текст, аккорды и табулатура для песни "Sexi Plexi", исполняет "Johnson Jack".
Используемые в песне аккорды можно найти в разделе Как брать аккорды. Аккорды для шестиструнной гитары. Другие песни можно найти на нашем сайте, воспользовавшись алфавитным указателем вверху страницы.


 
Ошибка в тексте? Выделите ошибку и нажмите Ctrl+Enter