intro part 1

e|--2---2-2h4p2---2------------6-----6-6h9p6---6---6--X---7---7---
B|--2-----------2------2--X--7---------------7-----6--X---7-------
G|--3------------------4--X--6---------------------7--X---8-------
D|--4------------------3--X--6h8-------------------8--X---9-------
A|--4------------------4--X--6---------------------8--X---9-------
E|--2----------------------------------------------6--X---7-------

e|--7h9p7----7---6--X--4---
B|---------7-----6--X--4---
G|---------------6--X--4---
D|---------------6--X--4---
A|---------------8--X--6---
E|---------------6--X--4---

intro part 2

------------------2-5-2-0---------------------------
-------3/5-3/5--2---------2-----------------3/5-3/5-
-------4/6-4/6--------------2h4-4-2-2-------4/6-4/6-
--------------------------------------2-3-4---------
----------------------------------------------------
-0-1-2----------------------------------------------

                                              
-----------------------------------------2-5-2-2--
-----------------------------3/5-3/5---2--------4-
-4b5r4--2----2h4--2--2-------4/6-4/6------------2-
----------4------------2-3-4--------------------4-
------------------------------------------------2-
--------------------------------------------------

Verse 1 
                    
e|----------2---------------------------2--------------
B|----------2---------------------------4--------------
G|----------3---------------------------2--------------
D|-----4----4------------------4-4------4--------------
A|-4/6------4--------------4/6-----6-2--2---0h2-0h2----
E|-------2--2---0h2-0h2--------------------------------
brushfire fairytales .......
(play this couple of times)
       
e|------------4-----------4-----2------2-------2-----------2---4-
B|------------6-----------6-----4------4-------2-----------2---6-
G|------------4-----------4-----2------2-------3-----------3---4-
D|-----4-3----6-----------6-----4------4-------4-----------4---6-
A|-4/6-----4--4---0h4-0h4-4---2-2--0-2-2---2---4-----------4---4-
E|-------------------------------------2-----2-2---0h2-0h2-2-----

verse 2

e|----2----------2-----2----------2------2----------2-----2----------2---
B|----2----------2-----4----------4------2----------2-----4----------4---
G|----3----------3-----2----------2------3----------3-----2----------2---
D|----4----------4-----4----------4------4----------4-----4----------4---
A|----4----------4--2--2--0-2-0-2-2------4----------4--2--2--0-2-0-2-2---
E|-2--2--0-2-0-2-2--------------------2--2--0-2-0-2-2--------------------


e|----4-----------4-----2----------2-----2-----------2---4-
B|----6-----------6-----4----------4-----2-----------2---6-
G|----4-----------4-----2----------2-----3-----------3---4-
D|----6-----------6-----4----------4-----4-----------4---6-
A|-4--4---0-4-0-4-4---2-2--0-2-0-2-2-----4-----------4---4-
E|---------------------------------2--2--2---0-2-0-2-2-----


F#
Well dust off your thinking caps
              B7
Solar powered plastic plants
                   F#      
Pretty pictures of things we ate
            B7             
We are only what we hate
                C#7           
But in the long run we have found
                 B7            
Silent films are full of sound
          F#         C#7           
Inaudibly free

 
F#                  
Slow down everyone
       Bb                  
You're moving too fast
B                             
Frames can't catch you when 
       G#                     
You're moving like that

 
F#                   
Inaudible melodies
   Bb                  
Of narrational strategies
B                       
Unobtrusive tones 
        G#                             
Help to notice nothing but the zone
   F#                  
Of visual relevancy
Bb                                
Frame-lines tell me what to see 
B                      
Chopping like an axe
         G#                               
So maybe Eisenstein should just relax

 
F#
Slow down everyone
       Bb
You're moving too fast
B
Frames can't catch you when 
       G#
You're moving like that


then there is a lil solo, dont know that yet and finish the song by playin the
intro and thats it !


Текст, аккорды и табулатура для песни "Inaudible Melodies", исполняет "Johnson Jack".
Используемые в песне аккорды можно найти в разделе Как брать аккорды. Аккорды для шестиструнной гитары. Другие песни можно найти на нашем сайте, воспользовавшись алфавитным указателем вверху страницы.


 
Ошибка в тексте? Выделите ошибку и нажмите Ctrl+Enter