Prelude Cello Suite III
 [email protected]
 
 
 
 --------------------------|----7-------------------------------|
 |--2--5--2----------------------5-----|-------7-----------------7--9--10--7|
 3-----1--3--4--6h7-----6--|-7--------7-----6--7--9-------------|
 ---4------------------------9----------------------|
 ---------------------------------------------------|
 ---------------------------------------------------|
 
 
 ----------------------------------------------------
 |-9--12--9--------------------9--10-12--9-|-10--12--10--9-------------------
 10------8--10-11-------------------11---------------
 ----11---------------------------------12--11--9----
 ----------------------------------------------------
 ----------------------------------------------------
 
 
 -----------------------------------------------4----
 ------------------------------9--6--7-----|----------7--6-------
 ---------------------6--7-----------------|-------4-------------
 ---------------|--------6--8--9--------9-----------9--|----6----------------
 -12--11--9--7--|-----9--------------------------------|-4-------------------
 ---------------|-10---------------------------------------------
 
 
 -----------|
 -----6--7--|
 --6--------|
 -----------|
 -----------|
 -----------|
 
 



Текст, аккорды и табулатура для песни "Prelude Cello Suite III", исполняет "Johann Sebastian Bach".
Используемые в песне аккорды можно найти в разделе Как брать аккорды. Аккорды для шестиструнной гитары. Другие песни можно найти на нашем сайте, воспользовавшись алфавитным указателем вверху страницы.


 
Ошибка в тексте? Выделите ошибку и нажмите Ctrl+Enter