|--------||----------0-1-0-3p1p0----------|-------0h1-3-1-5p3p1------------|
 |--------||--------3-------------3-2----------------5-3--------|
 |---2----||------2-------------------2------------------2------|
 |--------||--0h3-----------------------2--|---2-----------------------3----|
 |-----------------|-4------------------------------|
 |--------------------------------------|
 
 
 -6-5---------------------5------------3-------------
 |----6p5---6-----8-6-5-------5-----5---8-6-5-----|----3-----3---6-5-3-2-----
 |--------7-------------7-5-7---7-5-----------7-5-|3-5---5-3-------------4-2-
 |-0-------------------------------------------------------------
 ----------------------------------------------------
 ----------------------------------------------------
 
 
 ------------------------------------------------------|---------
 ---2-----2-5-3-2------------3-2-------------------5-6-|-8-5-----
 -4---4-2---------4-2---|---2p0------------------------2-3-5-7-----|-----5---
 ---------------------5-|-3-----3p2p0---------0--2-3-5-------------|-------5-
 -------------------------0----------------------------|---------
 ------------------------------------------------------|---------
 
 
 ---------------------------------------------|-6----6-10-----5---5-8--------
 ----------------------------------------8-10-|---10------5-8---8--------6-8-
 -----5---------------------------7-9-10-------------------7-----
 ---5---5-------5-7-5------7-8-10--------------------------------
 -7-------7---7-------8-10---------------------------------------
 -----------8----------------------------------------------------
 
 
 -----6-----------5---------------------------------------------|
 -6-8-----5-6-5-6---8-6-|-5---5-6-5---------------------6-------------------|
 -------5---------------|---7-------7-5---5-7-5-------5---5---------5-------|
 ---------------------------8-------8-7h8-------7---5h7---7-----|
 -------------------------------------------------8---------8---|
 ---------------------------------------------------------------|
 
 
 ----------------------------6---------6-------6---6-
 --------------------------8---8-------|-------5-8---------------
 ------------------------7-------7-----|-----5-------5---5---5---
 |-------8-----------------------5-8-----------8-5-|---5-----------8---------
 |-5h6h8---8-5-----5-8-5-------5-------------------|-7-----------------------
 --6h8-------6-3-6-----------------------------------
 
 
 -----------5-------5---5-6-------6---6------------5-------5---5-|
 -------5-6---------------|-------5-8----------------------5-6---------------|
 -----5-------5---5---5---|-----5-------5---5---5--------5-------5---5---5---|
 ---7-----------8---------|---5-----------8------------7-----------8---------|
 -8-----------------------|-7------------------------8-----------------------|
 ----------------------------------------------------------------|
 
 
 |-------5-6-10-------10---10-------------8--------8---8-6-------
 |-----6-----------------------------8-10----------------|-------6-8---------
 |---7----------9-7-9----9---------9--------7----7---7---|-----7-------5---5-
 |-8--------------------------7-10------------10---------|-5-8-----------8---
 ----------------------------------------------------
 ----------------------------------------------------
 
 
 -6---6-----------5-------5--------------------------------------
 -------------5-6-----------6------------------------------------
 ---5-------5-------5---5-----7-|-------5-7---------------------------------5
 ---------7-----------8---------|-8-7-8-----8-5---5-7-8-5---------5-------5--
 -------8---------------------------8---------7-5-7-8---7---7----
 ---------------------------------------------------------8------
 
 
 -----------------------------------7-5-|-7----------------------
 -5-------------------------------6-----|---6-5------------------
 -----------------------7-6-7---7-------|-------7-5-4------------
 ---|-8-7-5-------------5---------7-------7-----------7-6-4------
 ---|-------8-7-5-4-------7-8-5-8---------------------------7----
 -------7-5------------------------------------------
 
 
 -------------5-4-5h7h8---5-8-|-----5-----5-------------------------------7--|
 -----------5-----------8-----|-6h8---5-6-----5h6-----6----------------------|
 -7-4-5---5---------------------7-----6-7----------6-7h9h10-7---7|
 -------7-----------------------------------6--7-9---------------|
 ----------------------------------------------------------------|
 ----------------------------------------------------------------|
 
 
 |---------5-----------4-----------5------------7----|
 |-----5-----------------------5---------------------|
 |-5h7---5---5-4h5h7-4---4-5h7---5---5-7h9h10-7---7--|
 ----------------------------------------|
 ----------------------------------------|
 ----------------------------------------|
 
 



Текст, аккорды и табулатура для песни "Gigue Partita #2", исполняет "Johann Sebastian Bach".
Используемые в песне аккорды можно найти в разделе Как брать аккорды. Аккорды для шестиструнной гитары. Другие песни можно найти на нашем сайте, воспользовавшись алфавитным указателем вверху страницы.


 
Ошибка в тексте? Выделите ошибку и нажмите Ctrl+Enter