UPTOWN GIRL - BILLY JOEL

HTTP://WWW.GUITAREN.DK
FR??RIKUR ELLEFSEN

4/4 - 1 - 2 - 3 - 4   1 - 2 - 3 - 4        1    2    3    4  osv.

E||------------------|------------------|--0----0----0----0----|
B||------------------|------------------|--0----0----0----0----|
G||------------------|------------------|--1----1----1----1----|
D||------------------|------------------|----------------------|
A||------------------|------------------|----------------------|
E||------------------|------------------|----------------------|

--0----0----0----0----|--0----0----0----0----|--0----0----2----0----|
--2----2----2----2----|--0----0----0----0----|--2----2----4----2----|
--2----2----2----2----|--1----1----1----1----|--2----2----2----2----|
----------------------|----------------------|----------------------|
----------------------|----------------------|----------------------|
----------------------|----------------------|----------------------|

--0----0----0----0----|--0----0----0----0----|--0----0----0----0----|
--0----0----0----0----|--2----2----2----2----|--0----0----0----0----|
--1----1----1----1----|--2----2----2----2----|--1----1----1----1----|
----------------------|----------------------|----------------------|
----------------------|----------------------|----------------------|
----------------------|----------------------|----------------------|

--0----0----2----0----|--0----0----0----0----|--0----0----0----0----|
--2----2----4----2----|--0----0----0----0----|--2----2----2----2----|
--2----2----2----2----|--1----1----1----1----|--2----2----2----2----|
----------------------|----------------------|----------------------|
----------------------|----------------------|----------------------|
----------------------|----------------------|----------------------|

--0----0----0----0----|--0----0----2----0----|--0----0----0----0----|
--0----0----0----0----|--2----2----4----2----|--0----0----0----0----|
--1----1----1----1----|--2----2----2----2----|--1----1----1----1----|
----------------------|----------------------|----------------------|
----------------------|----------------------|----------------------|
----------------------|----------------------|----------------------|

--0----0----0----0----|--0----0----0----0----|--0----0----2----0----|
--2----2----2----2----|--0----0----0----0----|--2----2----4----2----|
--2----2----2----2----|--1----1----1----1----|--2----2----2----2----|
----------------------|----------------------|----------------------|
----------------------|----------------------|----------------------|
----------------------|----------------------|----------------------|

--0----0----0----0----|--0----0----0----0----|--0----0----0----0----|
--0----0----0----0----|--2----2----2----2----|--0----0----0----0----|
--1----1----1----1----|--2----2----2----2----|--1----1----1----1----|
----------------------|----------------------|----------------------|
----------------------|----------------------|----------------------|
----------------------|----------------------|----------------------|

--0----0----2----0----|--0----0----0----0----|--0----0----0----0----|
--2----2----4----2----|--1----1----1----1----|--1----1----1----1----|
--2----2----2----2----|--0----0----0----0----|--0----0----0----0----|
----------------------|----------------------|----------------------|
----------------------|----------------------|----------------------|
----------------------|----------------------|----------------------|

--1----1----1----1----|--1----1----1----1----|--0----0----0----0----|
--1----1----1----1----|--0----0----0----0----|--1----1----1----1----|
--2----2----2----2----|--0----0----0----0----|--0----0----0----0----|
----------------------|----------------------|----------------------|
----------------------|----------------------|----------------------|
----------------------|----------------------|----------------------|

--0----0----0----0----|--1----1--1--1----1----|--1----0---------0----|
--1----1----1----1----|--3----3--3--3----3----|--0----0----0----0----|
--0----0----0----0----|--2----2--2--2----2----|--1----1----7----1----|
----------------------|-----------------------|------------6---------|
----------------------|-----------------------|----------------------|
----------------------|-----------------------|----------------------|

--0----0----0----0----|--0----0----0----0----|--2----2----2----2----|
--2----2----2----2----|--2----2----2----2----|--3----3----3----3----|
--2----2----2----2----|--2----2----2----2----|--2----2----2----2----|
----------------------|----------------------|----------------------|
----------------------|----------------------|----------------------|
----------------------|----------------------|----------------------|

--2----2----2----2----|--0----0----0----0----|--0----0----0----0----|
--4----4----4----4----|--0----0----0----0----|--2----2----2----2----|
--2----2----2----2----|--1----1----1----1----|--2----2----2----2----|
----------------------|----------------------|----------------------|
----------------------|----------------------|----------------------|
----------------------|----------------------|----------------------|

--0----0----0----0----|--0----0----0----0----|--0----0----0----0----|
--0----0----0----0----|--2----2----2----2----|--0----0----0----0----|
--1----1----1----1----|--2----2----2----2----|--1----1----1----1----|
----------------------|----------------------|----------------------|
----------------------|----------------------|----------------------|
----------------------|----------------------|----------------------|

--0----0----0----0----|--0----0----0----0----|--0----0----0----0----|
--2----2----2----2----|--0----0----0----0----|--2----2----2----2----|
--2----2----2----2----|--1----1----1----1----|--2----2----2----2----|
----------------------|----------------------|----------------------|
----------------------|----------------------|----------------------|
----------------------|----------------------|----------------------|

----------------------|--0----0----0----0----|--2----2----2----2----|
--3----3----3----3----|--2----2----2----2----|--2----2----2----2----|
--4----4----4----4----|--2----2----2----2----|--3----3----3----3----|
--5----5----5----5----|----------------------|----------------------|
----------------------|----------------------|----------------------|
----------------------|----------------------|----------------------|

--2----2----0----0----|----------------------|--0----0----0----0----|
--3----3----2----2----|--3----3----3----3----|--2----2----2----2----|
--4----4----2----2----|--4----4----4----4----|--2----2----2----2----|
----------------------|--5----5----5----5----|----------------------|
----------------------|----------------------|----------------------|
----------------------|----------------------|----------------------|

--2----2----2----2----|--2----2----2----2----|--0----0----0----0----|
--2----2----2----2----|--4----4----4----4----|--0----0----0----0----|
--3----3----3----3----|--4----4----4----4----|--1----1----1----1----|
----------------------|----------------------|----------------------|
----------------------|----------------------|----------------------|
----------------------|----------------------|----------------------|

--0----0----0----0----|--0----0----0----0----|--0----0----2----0----|
--2----2----2----2----|--0----0----0----0----|--2----2----4----2----|
--2----2----2----2----|--1----1----1----1----|--2----2----2----2----|
----------------------|----------------------|----------------------|
----------------------|----------------------|----------------------|
----------------------|----------------------|----------------------|

--0----0----0----0----|--0----0----0----0----|--0----0----0----0----|
--0----0----0----0----|--2----2----2----2----|--0----0----0----0----|
--1----1----1----1----|--2----2----2----2----|--1----1----1----1----|
----------------------|----------------------|----------------------|
----------------------|----------------------|----------------------|
----------------------|----------------------|----------------------|

--0----0----2----0----|--0----0----0----0----|--0----0----0----0----|
--2----2----4----2----|--1----1----1----1----|--1----1----1----1----|
--2----2----2----2----|--0----0----0----0----|--0----0----0----0----|
----------------------|----------------------|----------------------|
----------------------|----------------------|----------------------|
----------------------|----------------------|----------------------|

--1----1--1--1----1----|--1----1----1----1----|--0----0----0----0----|
--1----1--1--1----1----|--0----0----0----0----|--1----1----1----1----|
--2----2--2--2----2----|--0----0----0----0----|--0----0----0----0----|
-----------------------|----------------------|----------------------|
-----------------------|----------------------|----------------------|
-----------------------|----------------------|----------------------|

--0----0----0----0----|--1----1--1--1----1----|--1----0---------0----|
--1----1----1----1----|--3----3--3--3----3----|--0----0----0----0----|
--0----0----0----0----|--2----2--2--2----2----|--1----1----7----1----|
----------------------|-----------------------|------------6---------|
----------------------|-----------------------|----------------------|
----------------------|-----------------------|----------------------|

--0----0----0----0----|--0----0----0----0----|--2----2----2----2----|
--2----2----2----2----|--2----2----2----2----|--3----3----3----3----|
--2----2----2----2----|--2----2----2----2----|--2----2----2----2----|
----------------------|----------------------|----------------------|
----------------------|----------------------|----------------------|
----------------------|----------------------|----------------------|

--2----2----2----2----|--0----0----0----0----|--0----0----0----0----|
--4----4----4----4----|--0----0----0----0----|--2----2----2----2----|
--2----2----2----2----|--1----1----1----1----|--2----2----2----2----|
----------------------|----------------------|----------------------|
----------------------|----------------------|----------------------|
----------------------|----------------------|----------------------|

--0----0----0----0----|--0----2----2----0----|--0----0----0----0----|
--0----0----0----0----|--2----2----4----2----|--0----0----0----0----|
--1----1----1----1----|--2----2----2----2----|--1----1----1----1----|
----------------------|----------------------|----------------------|
----------------------|----------------------|----------------------|
----------------------|----------------------|----------------------|

--0----0----0----0----|--0----0----0----0----|--0----2----2----0----|
--2----2----2----2----|--0----0----0----0----|--2----2----4----2----|
--2----2----2----2----|--1----1----1----1----|--2----2----2----2----|
----------------------|----------------------|----------------------|
----------------------|----------------------|----------------------|
----------------------|----------------------|----------------------|

----------------------|--0----0----0----0----|--2----2----2----2----|
--3----3----3----3----|--2----2----2----2----|--2----2----2----2----|
--4----4----4----4----|--2----2----2----2----|--3----3----3----3----|
--5----5----5----5----|----------------------|----------------------|
----------------------|----------------------|----------------------|
----------------------|----------------------|----------------------|

--2----2----2----2----|----------------------|--0----0----0----0----|
--3----3----2----2----|--3----3----3----3----|--2----2----2----2----|
--4----4----2----2----|--4----4----4----4----|--2----2----2----2----|
----------------------|--5----5----5----5----|----------------------|
----------------------|----------------------|----------------------|
----------------------|----------------------|----------------------|

--2----2----2----2----|--2----2----2----2----|--0----0----0----0----|
--2----2----2----2----|--4----4----4----4----|--0----0----0----0----|
--3----3----3----3----|--4----4----4----4----|--1----1----1----1----|
----------------------|----------------------|----------------------|
----------------------|----------------------|----------------------|
----------------------|----------------------|----------------------|

--0----0----0----0----|--0----0----0----0----|--0----0----2----0----|
--2----2----2----2----|--0----0----0----0----|--2----2----4----2----|
--2----2----2----2----|--1----1----1----1----|--2----2----2----2----|
----------------------|----------------------|----------------------|
----------------------|----------------------|----------------------|
----------------------|----------------------|----------------------|

--0----0----0----0----|--0----0----0----0----|--0----0----0----0----|
--0----0----0----0----|--2----2----2----2----|--0----0----0----0----|
--1----1----1----1----|--2----2----2----2----|--1----1----1----1----|
----------------------|----------------------|----------------------|
----------------------|----------------------|----------------------|
----------------------|----------------------|----------------------|

--0----0----2----0----|--0----0----0----0----|--0----0----0----0----|
--2----2----4----2----|--0----0----0----0----|--2----2----2----2----|
--2----2----2----2----|--1----1----1----1----|--2----2----2----2----|
----------------------|----------------------|----------------------|
----------------------|----------------------|----------------------|
----------------------|----------------------|----------------------|

--0----0----0----0----|--0----0----2----0----|--0----0----0----0----|
--0----0----0----0----|--2----2----4----2----|--0----0----0----0----|
--1----1----1----1----|--2----2----2----2----|--1----1----1----1----|
----------------------|----------------------|----------------------|
----------------------|----------------------|----------------------|
----------------------|----------------------|----------------------|

--0----0----0----0----|--0----0----0----0----|--0----0----2----0-----||
--2----2----2----2----|--0----0----0----0----|--2----2----4----2-----||
--2----2----2----2----|--1----1----1----1----|--2----2----2----2-----||
----------------------|----------------------|-----------------------||
----------------------|----------------------|-----------------------||
----------------------|----------------------|-----------------------||

Westlife - Uptown girl

Uptown girl, she's been living in her uptown world
I bet she never had a back street guy
I bet her mama never told her why
I'm gonna try for an uptown girl

* She's been living in her white bread world
As long as anyone with hot blood can
And now she's looking for a downtown man
That's what I am

And when she knows what she wants from her time
And when she wakes up and makes up her mind

** She'll see I'm not so tough
Just because I'm in love with an uptown girl

You know I've seen her in her uptown world
She's getting tired of her high class toys
And all her presents from her uptown boys
She's got a choice

Uptown girl, you know I can't afford to buy her pearls
But maybe someday when my ship comes in
She'll understand what kind of guy I've been
And then I'll win

And when she's walking, she's looking so fine
And when she's talking, she'll say that she's mine

[Repeat ** , *]

*** (Uptown girl), she's my uptown girl
You know I'm in love with an uptown girl, my uptown girl
You know I'm in love with an uptown girl

[Repeat *** , ***] ... till fade

HTTP://WWW.GUITAREN.DK


Текст, аккорды и табулатура для песни "Up Town Girl", исполняет "Joel Billy".
Используемые в песне аккорды можно найти в разделе Как брать аккорды. Аккорды для шестиструнной гитары. Другие песни можно найти на нашем сайте, воспользовавшись алфавитным указателем вверху страницы.


Слушать онлайн Uptown Girl


Billy JoelUptown Girl на Яндекс.Музыке


 
Ошибка в тексте? Выделите ошибку и нажмите Ctrl+Enter