E-2------2----------------|
B||--------2--5------4----3------2----|--------2--5------4----|
G|4------4----|--------4--4-----------4------4----|
D||-----4-----------------------------|-----4-----------------|
A||--2--------------------|--0--------------------|--2--------------------|
E-------------------------|


                                                                          
-----------2-------------------------2------2----|
--------0--0----------0--|--------2--5------4----3------2----|
-------------------------4------4----|--------4--4-----------|
-----0-------------------|-----4-----------------------------|
-------------------7-----|--2--------------------|--0--------------------|
--3-------------5--------------------------------|


                                                                   
-----------2----5----7--0-----------------|
--------0--0----3----5--0-----------------|
----------------4----4--|--------2--------------------|
-----0------------------------------------|
------------------------------------------|
--3---------------------|--2--------------------------|


                                                                        
-----------------------2------2----------------|
--------2--5------4----3------2----|--------2--5------4----|
-----------4------4----|--------4--4-----------4------4----|
-----4-----------------------------|-----4-----------------|
--2--------------------|--0--------------------|--2--------------------|
-----------------------------------------------|


                                                                            
-----------2---------------------------2------2----|
--------0--0------------0--|--------2--5------4----3------2----|
---------------------------4------4----|--------4--4-----------|
-----0---------------------|-----4-----------------------------|
---------------------7-----|--2--------------------|--0--------------------|
--3-------------3/5--------------------------------|


                                                                              
-----------2----5----7--0---------------2----5----7--|
--------0--0----3----5--0---------------|--------0--0----3----5--|
----------------4----4--|--------2-------------2---------4----4--|
-----0---------------------------2---2--|-----0------------------|
-----------------------------2/4-----4---------------|
--3---------------------|--2------------------------|--3---------------------|


                                                     
-----------0---------------2----5----7--|
-----------0---------------|--------0--0----3----5--|
--------2-----------2/4/2-------4----4--|
-----2--------------2/4/2--|-----0------------------|
----------------2h4---------------------|
--2------------------------|--3---------------------|


                                                                                
-----------0----------------2----5----7--0-------------|
-----------0----------------|--------0--0----3----5--0----------0--|
--------2-----------2/4----------4----4--|--------2----------------|
-----2--------------2/4-2/4-|-----0--------------------------------|
----------------2h4-----2/4----------------------7-----|
--2-------------------------|--3---------------------|--2-------------5--------|


                                                                                              5x
-------------2------2-------------------------||
|---------2--5------4----3------2----|--------2--5------4-------------||
|*-----------4------4----|--------4--4-----------4------4------------*||
|*-----4-----------------------------|-----4-------------------------*||
|---2--------------------|--0--------------------|--2--------------------|--2-----------------||
----------------------------------------------||

 Повторять пять раз последние четыре такта                  


Текст, аккорды и табулатура для песни "ZZs song", исполняет "Joe Satriani".
Используемые в песне аккорды можно найти в разделе Как брать аккорды. Аккорды для шестиструнной гитары. Другие песни можно найти на нашем сайте, воспользовавшись алфавитным указателем вверху страницы.


 
Ошибка в тексте? Выделите ошибку и нажмите Ctrl+Enter